  0
SECTION
  2
HEADER
  9
$ACADVER
  1
AC1009
  9
$INSBASE
 10
0.0
 20
0.0
 30
0.0
  9
$EXTMIN
 10
67.062152
 20
-48.945487
 30
-16.573791
  9
$EXTMAX
 10
135.062152
 20
1577.314513
 30
1251.426209
  9
$LIMMIN
 10
0.0
 20
0.0
  9
$LIMMAX
 10
200.0
 20
200.0
  9
$ORTHOMODE
 70
     0
  9
$REGENMODE
 70
     1
  9
$FILLMODE
 70
     1
  9
$QTEXTMODE
 70
     0
  9
$MIRRTEXT
 70
     1
  9
$DRAGMODE
 70
     2
  9
$LTSCALE
 40
1.0
  9
$OSMODE
 70
    41
  9
$ATTMODE
 70
     1
  9
$TEXTSIZE
 40
2.5
  9
$TRACEWID
 40
1.0
  9
$TEXTSTYLE
  7
STANDARD
  9
$CLAYER
  8
0
  9
$CELTYPE
  6
BYLAYER
  9
$CECOLOR
 62
   256
  9
$DIMSCALE
 40
1.0
  9
$DIMASZ
 40
2.5
  9
$DIMEXO
 40
0.625
  9
$DIMDLI
 40
3.75
  9
$DIMRND
 40
0.0
  9
$DIMDLE
 40
0.0
  9
$DIMEXE
 40
1.25
  9
$DIMTP
 40
0.0
  9
$DIMTM
 40
0.0
  9
$DIMTXT
 40
2.5
  9
$DIMCEN
 40
2.5
  9
$DIMTSZ
 40
0.0
  9
$DIMTOL
 70
     0
  9
$DIMLIM
 70
     0
  9
$DIMTIH
 70
     1
  9
$DIMTOH
 70
     0
  9
$DIMSE1
 70
     0
  9
$DIMSE2
 70
     0
  9
$DIMTAD
 70
     1
  9
$DIMZIN
 70
     8
  9
$DIMBLK
  1

  9
$DIMASO
 70
     1
  9
$DIMSHO
 70
     1
  9
$DIMPOST
  1

  9
$DIMAPOST
  1

  9
$DIMALT
 70
     0
  9
$DIMALTD
 70
     2
  9
$DIMALTF
 40
0.0394
  9
$DIMLFAC
 40
1.0
  9
$DIMTOFL
 70
     1
  9
$DIMTVP
 40
1.0
  9
$DIMTIX
 70
     0
  9
$DIMSOXD
 70
     0
  9
$DIMSAH
 70
     0
  9
$DIMBLK1
  1

  9
$DIMBLK2
  1

  9
$DIMSTYLE
  2
ISO-25
  9
$DIMCLRD
 70
     0
  9
$DIMCLRE
 70
     0
  9
$DIMCLRT
 70
     0
  9
$DIMTFAC
 40
1.0
  9
$DIMGAP
 40
0.625
  9
$LUNITS
 70
     2
  9
$LUPREC
 70
     0
  9
$AXISMODE
 70
     0
  9
$AXISUNIT
 10
0.0
 20
0.0
  9
$SKETCHINC
 40
1.0
  9
$FILLETRAD
 40
0.0
  9
$AUNITS
 70
     0
  9
$AUPREC
 70
     0
  9
$MENU
  1
acad
  9
$ELEVATION
 40
0.0
  9
$PELEVATION
 40
0.0
  9
$THICKNESS
 40
0.0
  9
$LIMCHECK
 70
     0
  9
$BLIPMODE
 70
     1
  9
$CHAMFERA
 40
10.0
  9
$CHAMFERB
 40
10.0
  9
$SKPOLY
 70
     0
  9
$TDCREATE
 40
2451111.946173588
  9
$TDUPDATE
 40
2451175.038344908
  9
$TDINDWG
 40
0.0297209259
  9
$TDUSRTIMER
 40
0.0297093519
  9
$USRTIMER
 70
     1
  9
$ANGBASE
 50
0.0
  9
$ANGDIR
 70
     0
  9
$PDMODE
 70
     1
  9
$PDSIZE
 40
-3.0
  9
$PLINEWID
 40
0.0
  9
$COORDS
 70
     1
  9
$SPLFRAME
 70
     0
  9
$SPLINETYPE
 70
     6
  9
$SPLINESEGS
 70
     8
  9
$ATTDIA
 70
     0
  9
$ATTREQ
 70
     1
  9
$HANDLING
 70
     1
  9
$HANDSEED
  5
D46
  9
$SURFTAB1
 70
     8
  9
$SURFTAB2
 70
     2
  9
$SURFTYPE
 70
     6
  9
$SURFU
 70
     6
  9
$SURFV
 70
     6
  9
$UCSNAME
  2

  9
$UCSORG
 10
0.0
 20
0.0
 30
0.0
  9
$UCSXDIR
 10
1.0
 20
0.0
 30
0.0
  9
$UCSYDIR
 10
0.0
 20
1.0
 30
0.0
  9
$PUCSNAME
  2

  9
$PUCSORG
 10
0.0
 20
0.0
 30
0.0
  9
$PUCSXDIR
 10
1.0
 20
0.0
 30
0.0
  9
$PUCSYDIR
 10
0.0
 20
1.0
 30
0.0
  9
$USERI1
 70
     0
  9
$USERI2
 70
     0
  9
$USERI3
 70
     0
  9
$USERI4
 70
     0
  9
$USERI5
 70
     0
  9
$USERR1
 40
0.0
  9
$USERR2
 40
0.0
  9
$USERR3
 40
0.0
  9
$USERR4
 40
0.0
  9
$USERR5
 40
0.0
  9
$WORLDVIEW
 70
     1
  9
$SHADEDGE
 70
     3
  9
$SHADEDIF
 70
    70
  9
$TILEMODE
 70
     1
  9
$MAXACTVP
 70
    16
  9
$PINSBASE
 10
0.0
 20
0.0
 30
0.0
  9
$PLIMCHECK
 70
     0
  9
$PEXTMIN
 10
1.000000E+20
 20
1.000000E+20
 30
1.000000E+20
  9
$PEXTMAX
 10
-1.000000E+20
 20
-1.000000E+20
 30
-1.000000E+20
  9
$PLIMMIN
 10
0.0
 20
0.0
  9
$PLIMMAX
 10
420.0
 20
297.0
  9
$UNITMODE
 70
     0
  9
$VISRETAIN
 70
     0
  9
$PLINEGEN
 70
     0
  9
$PSLTSCALE
 70
     1
  9
$TREEDEPTH
 70
  3020
  9
$DWGCODEPAGE
  3
dos850
  0
ENDSEC
  0
SECTION
  2
TABLES
  0
TABLE
  2
VPORT
 70
     1
  0
VPORT
  2
*ACTIVE
 70
     0
 10
0.0
 20
0.0
 11
1.0
 21
1.0
 12
9.697001
 22
825.05833
 13
0.0
 23
0.0
 14
10.0
 24
10.0
 15
10.0
 25
10.0
 16
-1.0
 26
-1.0
 36
1.0
 17
0.0
 27
0.0
 37
0.0
 40
1726.996413
 41
1.357349
 42
50.0
 43
0.0
 44
0.0
 50
0.0
 51
0.0
 71
     0
 72
   100
 73
     1
 74
     1
 75
     0
 76
     0
 77
     0
 78
     0
  0
ENDTAB
  0
TABLE
  2
LTYPE
 70
     1
  0
LTYPE
  2
CONTINUOUS
 70
    64
  3
Solid line
 72
    65
 73
     0
 40
0.0
  0
ENDTAB
  0
TABLE
  2
LAYER
 70
     4
  0
LAYER
  2
0
 70
    64
 62
     7
  6
CONTINUOUS
  0
LAYER
  2
I-FLU
 70
    64
 62
   253
  6
CONTINUOUS
  0
LAYER
  2
I-CAP
 70
    64
 62
   160
  6
CONTINUOUS
  0
LAYER
  2
I-TUBE
 70
    64
 62
   100
  6
CONTINUOUS
  0
ENDTAB
  0
TABLE
  2
STYLE
 70
     1
  0
STYLE
  2
STANDARD
 70
    64
 40
0.0
 41
1.0
 50
0.0
 71
     0
 42
2.5
  3
ISOCP
  4

  0
ENDTAB
  0
TABLE
  2
VIEW
 70
     0
  0
ENDTAB
  0
TABLE
  2
UCS
 70
     0
  0
ENDTAB
  0
TABLE
  2
APPID
 70
     6
  0
APPID
  2
ACAD
 70
     0
  0
APPID
  2
AVE_RENDER
 70
     0
  0
APPID
  2
AVE_ENTITY_MATERIAL
 70
     0
  0
APPID
  2
AVE_FINISH
 70
     0
  0
APPID
  2
AVE_MATERIAL
 70
     0
  0
APPID
  2
AVE_GLOBAL
 70
     0
  0
ENDTAB
  0
TABLE
  2
DIMSTYLE
 70
     2
  0
DIMSTYLE
  2
STANDARD
 70
     0
  3

  4

  5

  6

  7

 40
1.0
 41
0.18
 42
0.0625
 43
0.38
 44
0.18
 45
0.0
 46
0.0
 47
0.0
 48
0.0
140
0.18
141
0.09
142
0.0
143
25.4
144
1.0
145
0.0
146
1.0
147
0.09
 71
     0
 72
     0
 73
     1
 74
     1
 75
     0
 76
     0
 77
     0
 78
     0
170
     0
171
     2
172
     0
173
     0
174
     0
175
     0
176
     0
177
     0
178
     0
  0
DIMSTYLE
  2
ISO-25
 70
     0
  3

  4

  5

  6

  7

 40
1.0
 41
2.5
 42
0.625
 43
3.75
 44
1.25
 45
0.0
 46
0.0
 47
0.0
 48
0.0
140
2.5
141
2.5
142
0.0
143
0.0394
144
1.0
145
1.0
146
1.0
147
0.625
 71
     0
 72
     0
 73
     1
 74
     0
 75
     0
 76
     0
 77
     1
 78
     8
170
     0
171
     2
172
     1
173
     0
174
     0
175
     0
176
     0
177
     0
178
     0
  0
ENDTAB
  0
ENDSEC
  0
SECTION
  2
BLOCKS
  0
BLOCK
  8
0
  5
A66
  2
AVE_RENDER
 70
    64
 10
-67.921458
 20
0.0
 30
-42.885487
  1
AVE_RENDER
  3
AVE_RENDER
  0
ENDBLK
  8
0
  5
A67
  0
BLOCK
  8
0
  5
A74
  2
AVE_GLOBAL
 70
    64
 10
-67.921458
 20
0.0
 30
-42.885487
  1
AVE_GLOBAL
  3
AVE_GLOBAL
  0
ENDBLK
  8
0
  5
A75
  0
ENDSEC
  0
SECTION
  2
ENTITIES
  0
VIEWPORT
  8
0
  5
22
 67
     1
 68
     1
 10
261.517699
 20
148.5
 30
0.0
 40
523.035398
 41
297.0
 69
     1
1001
ACAD
1000
MVIEW
1002
{
1070
    16
1010
0.0
1020
0.0
1030
0.0
1010
0.0
1020
0.0
1030
1.0
1040
0.0
1040
297.0
1040
261.517699
1040
148.5
1040
50.0
1040
0.0
1040
0.0
1070
     0
1070
   100
1070
     1
1070
     1
1070
     0
1070
     0
1070
     0
1070
     0
1040
0.0
1040
0.0
1040
0.0
1040
1.0
1040
1.0
1040
10.0
1040
10.0
1070
     0
1002
{
1002
}
1002
}
  0
ARC
  8
I-FLU
  5
32
 10
101.062152
 20
17.426209
 30
42.885487
 40
34.0
 50
225.0
 51
315.0
210
0.0
220
-1.0
230
0.0
  0
POINT
  8
I-FLU
  5
33
 10
135.062152
 20
-42.885487
 30
17.426209
210
0.0
220
-1.0
230
0.0
  0
POINT
  8
I-FLU
  5
34
 10
125.103783
 20
-42.885487
 30
41.46784
210
0.0
220
-1.0
230
0.0
  0
POINT
  8
I-FLU
  5
35
 10
101.062152
 20
-42.885487
 30
51.426209
210
0.0
220
-1.0
230
0.0
  0
POINT
  8
I-FLU
  5
36
 10
77.020522
 20
-42.885487
 30
41.46784
210
0.0
220
-1.0
230
0.0
  0
POINT
  8
I-FLU
  5
37
 10
67.062152
 20
-42.885487
 30
17.426209
210
0.0
220
-1.0
230
0.0
  0
POINT
  8
I-FLU
  5
38
 10
77.020522
 20
-42.885487
 30
-6.615422
210
0.0
220
-1.0
230
0.0
  0
POINT
  8
I-FLU
  5
39
 10
101.062152
 20
-42.885487
 30
-16.573791
210
0.0
220
-1.0
230
0.0
  0
POINT
  8
I-FLU
  5
3A
 10
125.103783
 20
-42.885487
 30
-6.615422
210
0.0
220
-1.0
230
0.0
  0
LINE
  8
I-FLU
  5
3B
 10
77.020522
 20
-42.885487
 30
-6.615422
 11
78.434735
 21
-42.885487
 31
-5.201208
210
0.0
220
-1.0
230
0.0
  0
LINE
  8
I-FLU
  5
3F
 10
75.647939
 20
-42.885487
 30
-5.159577
 11
77.064759
 21
-42.885487
 31
-3.742757
210
0.0
220
-1.0
230
0.0
  0
LINE
  8
I-FLU
  5
46
 10
125.059546
 20
-42.885487
 30
-3.742757
 11
126.476366
 21
-42.885487
 31
-5.159577
210
0.0
220
-1.0
230
0.0
  0
LINE
  8
I-FLU
  5
47
 10
123.689569
 20
-42.885487
 30
-5.201208
 11
125.103783
 21
-42.885487
 31
-6.615422
210
0.0
220
-1.0
230
0.0
  0
ARC
  8
I-FLU
  5
48
 10
101.062152
 20
17.426209
 30
42.885487
 40
34.0
 50
318.372287
 51
0.0
210
0.0
220
-1.0
230
0.0
  0
LINE
  8
I-FLU
  5
4E
 10
67.062152
 20
-42.885487
 30
17.426209
 11
135.062152
 21
-42.885487
 31
17.426209
210
0.0
220
-1.0
230
0.0
  0
LINE
  8
I-FLU
  5
4F
 10
125.103783
 20
37.114513
 30
-6.615422
 11
120.103783
 21
37.114513
 31
-6.615422
210
0.0
220
-1.0
230
0.0
  0
ARC
  8
I-FLU
  5
50
 10
101.062152
 20
17.426209
 30
-37.114513
 40
34.0
 50
225.0
 51
315.0
210
0.0
220
-1.0
230
0.0
  0
LINE
  8
I-FLU
  5
51
 10
77.020522
 20
37.114513
 30
-6.615422
 11
82.020522
 21
37.114513
 31
-6.615422
210
0.0
220
-1.0
230
0.0
  0
LINE
  8
I-FLU
  5
53
 10
75.647939
 20
-42.885487
 30
40.011995
 11
77.064759
 21
-42.885487
 31
38.595175
210
0.0
220
-1.0
230
0.0
  0
LINE
  8
I-FLU
  5
54
 10
77.020522
 20
-42.885487
 30
41.46784
 11
78.434735
 21
-42.885487
 31
40.053626
210
0.0
220
-1.0
230
0.0
  0
LINE
  8
I-FLU
  5
55
 10
125.059546
 20
-42.885487
 30
38.595175
 11
126.476366
 21
-42.885487
 31
40.011995
210
0.0
220
-1.0
230
0.0
  0
LINE
  8
I-FLU
  5
57
 10
123.689569
 20
-42.885487
 30
40.053626
 11
125.103783
 21
-42.885487
 31
41.46784
210
0.0
220
-1.0
230
0.0
  0
ARC
  8
I-FLU
  5
58
 10
101.062152
 20
17.426209
 30
42.885487
 40
34.0
 50
45.0
 51
135.0
210
0.0
220
-1.0
230
0.0
  0
ARC
  8
I-FLU
  5
59
 10
101.062152
 20
17.426209
 30
42.885487
 40
34.0
 50
180.0
 51
221.627713
210
0.0
220
-1.0
230
0.0
  0
ARC
  8
I-FLU
  5
5A
 10
101.062152
 20
17.426209
 30
42.885487
 40
34.0
 50
138.372287
 51
180.0
210
0.0
220
-1.0
230
0.0
  0
ARC
  8
I-FLU
  5
5B
 10
101.062152
 20
17.426209
 30
42.885487
 40
34.0
 50
0.0
 51
41.627713
210
0.0
220
-1.0
230
0.0
  0
LINE
  8
I-FLU
  5
5C
 10
101.062152
 20
-42.885487
 30
51.426209
 11
101.062152
 21
1557.114513
 31
51.426209
210
0.0
220
-1.0
230
0.0
  0
ARC
  8
I-TUBE
  5
60
 10
101.062152
 20
17.426209
 30
-37.114513
 40
30.668937
 50
231.619811
 51
308.380189
210
0.0
220
-1.0
230
0.0
  0
POLYLINE
  8
I-FLU
  5
68
 66
     1
 10
0.0
 20
0.0
 30
0.0
 70
    16
 71
     2
 72
     7
  0
VERTEX
  8
I-FLU
  5
69
 10
101.062152
 20
1154.114513
 30
51.426209
 70
    64
  0
VERTEX
  8
I-FLU
  5
6A
 10
99.562152
 20
1154.516437
 30
51.426209
 70
    64
  0
VERTEX
  8
I-FLU
  5
6B
 10
98.464076
 20
1155.614513
 30
51.426209
 70
    64
  0
VERTEX
  8
I-FLU
  5
6C
 10
98.062152
 20
1157.114513
 30
51.426209
 70
    64
  0
VERTEX
  8
I-FLU
  5
6D
 10
98.464076
 20
1158.614513
 30
51.426209
 70
    64
  0
VERTEX
  8
I-FLU
  5
6E
 10
99.562152
 20
1159.71259
 30
51.426209
 70
    64
  0
VERTEX
  8
I-FLU
  5
6F
 10
101.062152
 20
1160.114513
 30
51.426209
 70
    64
  0
VERTEX
  8
I-FLU
  5
70
 10
101.062152
 20
1154.114513
 30
1251.426209
 70
    64
  0
VERTEX
  8
I-FLU
  5
71
 10
99.562152
 20
1154.516437
 30
1251.426209
 70
    64
  0
VERTEX
  8
I-FLU
  5
72
 10
98.464076
 20
1155.614513
 30
1251.426209
 70
    64
  0
VERTEX
  8
I-FLU
  5
73
 10
98.062152
 20
1157.114513
 30
1251.426209
 70
    64
  0
VERTEX
  8
I-FLU
  5
74
 10
98.464076
 20
1158.614513
 30
1251.426209
 70
    64
  0
VERTEX
  8
I-FLU
  5
75
 10
99.562152
 20
1159.71259
 30
1251.426209
 70
    64
  0
VERTEX
  8
I-FLU
  5
76
 10
101.062152
 20
1160.114513
 30
1251.426209
 70
    64
  0
SEQEND
  8
I-FLU
  5
77
  0
POLYLINE
  8
I-FLU
  5
78
 66
     1
 10
0.0
 20
0.0
 30
0.0
 70
    16
 71
     2
 72
     7
  0
VERTEX
  8
I-FLU
  5
79
 10
101.062152
 20
1154.114513
 30
51.426209
 70
    64
  0
VERTEX
  8
I-FLU
  5
7A
 10
102.562152
 20
1154.516437
 30
51.426209
 70
    64
  0
VERTEX
  8
I-FLU
  5
7B
 10
103.660229
 20
1155.614513
 30
51.426209
 70
    64
  0
VERTEX
  8
I-FLU
  5
7C
 10
104.062152
 20
1157.114513
 30
51.426209
 70
    64
  0
VERTEX
  8
I-FLU
  5
7D
 10
103.660229
 20
1158.614513
 30
51.426209
 70
    64
  0
VERTEX
  8
I-FLU
  5
7E
 10
102.562152
 20
1159.71259
 30
51.426209
 70
    64
  0
VERTEX
  8
I-FLU
  5
7F
 10
101.062152
 20
1160.114513
 30
51.426209
 70
    64
  0
VERTEX
  8
I-FLU
  5
80
 10
101.062152
 20
1154.114513
 30
1251.426209
 70
    64
  0
VERTEX
  8
I-FLU
  5
81
 10
102.562152
 20
1154.516437
 30
1251.426209
 70
    64
  0
VERTEX
  8
I-FLU
  5
82
 10
103.660229
 20
1155.614513
 30
1251.426209
 70
    64
  0
VERTEX
  8
I-FLU
  5
83
 10
104.062152
 20
1157.114513
 30
1251.426209
 70
    64
  0
VERTEX
  8
I-FLU
  5
84
 10
103.660229
 20
1158.614513
 30
1251.426209
 70
    64
  0
VERTEX
  8
I-FLU
  5
85
 10
102.562152
 20
1159.71259
 30
1251.426209
 70
    64
  0
VERTEX
  8
I-FLU
  5
86
 10
101.062152
 20
1160.114513
 30
1251.426209
 70
    64
  0
SEQEND
  8
I-FLU
  5
87
  0
POLYLINE
  8
I-FLU
  5
88
 66
     1
 10
0.0
 20
0.0
 30
0.0
 70
    16
 71
     2
 72
     7
  0
VERTEX
  8
I-FLU
  5
89
 10
101.062152
 20
354.114513
 30
51.426209
 70
    64
  0
VERTEX
  8
I-FLU
  5
8A
 10
102.562152
 20
354.516437
 30
51.426209
 70
    64
  0
VERTEX
  8
I-FLU
  5
8B
 10
103.660229
 20
355.614513
 30
51.426209
 70
    64
  0
VERTEX
  8
I-FLU
  5
8C
 10
104.062152
 20
357.114513
 30
51.426209
 70
    64
  0
VERTEX
  8
I-FLU
  5
8D
 10
103.660229
 20
358.614513
 30
51.426209
 70
    64
  0
VERTEX
  8
I-FLU
  5
8E
 10
102.562152
 20
359.71259
 30
51.426209
 70
    64
  0
VERTEX
  8
I-FLU
  5
8F
 10
101.062152
 20
360.114513
 30
51.426209
 70
    64
  0
VERTEX
  8
I-FLU
  5
90
 10
101.062152
 20
354.114513
 30
1251.426209
 70
    64
  0
VERTEX
  8
I-FLU
  5
91
 10
102.562152
 20
354.516437
 30
1251.426209
 70
    64
  0
VERTEX
  8
I-FLU
  5
92
 10
103.660229
 20
355.614513
 30
1251.426209
 70
    64
  0
VERTEX
  8
I-FLU
  5
93
 10
104.062152
 20
357.114513
 30
1251.426209
 70
    64
  0
VERTEX
  8
I-FLU
  5
94
 10
103.660229
 20
358.614513
 30
1251.426209
 70
    64
  0
VERTEX
  8
I-FLU
  5
95
 10
102.562152
 20
359.71259
 30
1251.426209
 70
    64
  0
VERTEX
  8
I-FLU
  5
96
 10
101.062152
 20
360.114513
 30
1251.426209
 70
    64
  0
SEQEND
  8
I-FLU
  5
97
  0
POLYLINE
  8
I-FLU
  5
98
 66
     1
 10
0.0
 20
0.0
 30
0.0
 70
    16
 71
     2
 72
     7
  0
VERTEX
  8
I-FLU
  5
99
 10
101.062152
 20
354.114513
 30
51.426209
 70
    64
  0
VERTEX
  8
I-FLU
  5
9A
 10
99.562152
 20
354.516437
 30
51.426209
 70
    64
  0
VERTEX
  8
I-FLU
  5
9B
 10
98.464076
 20
355.614513
 30
51.426209
 70
    64
  0
VERTEX
  8
I-FLU
  5
9C
 10
98.062152
 20
357.114513
 30
51.426209
 70
    64
  0
VERTEX
  8
I-FLU
  5
9D
 10
98.464076
 20
358.614513
 30
51.426209
 70
    64
  0
VERTEX
  8
I-FLU
  5
9E
 10
99.562152
 20
359.71259
 30
51.426209
 70
    64
  0
VERTEX
  8
I-FLU
  5
9F
 10
101.062152
 20
360.114513
 30
51.426209
 70
    64
  0
VERTEX
  8
I-FLU
  5
A0
 10
101.062152
 20
354.114513
 30
1251.426209
 70
    64
  0
VERTEX
  8
I-FLU
  5
A1
 10
99.562152
 20
354.516437
 30
1251.426209
 70
    64
  0
VERTEX
  8
I-FLU
  5
A2
 10
98.464076
 20
355.614513
 30
1251.426209
 70
    64
  0
VERTEX
  8
I-FLU
  5
A3
 10
98.062152
 20
357.114513
 30
1251.426209
 70
    64
  0
VERTEX
  8
I-FLU
  5
A4
 10
98.464076
 20
358.614513
 30
1251.426209
 70
    64
  0
VERTEX
  8
I-FLU
  5
A5
 10
99.562152
 20
359.71259
 30
1251.426209
 70
    64
  0
VERTEX
  8
I-FLU
  5
A6
 10
101.062152
 20
360.114513
 30
1251.426209
 70
    64
  0
SEQEND
  8
I-FLU
  5
A7
  0
LINE
  8
I-CAP
  5
AB
 10
131.362152
 20
-47.935487
 30
17.426209
 11
133.382152
 21
-42.885487
 31
17.426209
  0
LINE
  8
I-CAP
  5
AC
 10
131.362152
 20
-47.935487
 30
17.426209
 11
129.342152
 21
-47.935487
 31
17.426209
  0
LINE
  8
I-CAP
  5
AE
 10
129.342152
 20
-47.935487
 30
17.426209
 11
129.342152
 21
-48.945487
 31
17.426209
  0
LINE
  8
I-CAP
  5
AF
 10
129.342152
 20
-48.945487
 30
17.426209
 11
127.322152
 21
-48.945487
 31
17.426209
  0
LINE
  8
I-CAP
  5
B0
 10
127.322152
 20
-48.945487
 30
17.426209
 11
127.322152
 21
-42.885487
 31
17.426209
  0
POLYLINE
  8
I-CAP
  5
B2
 66
     1
 10
0.0
 20
0.0
 30
0.0
 70
    17
 71
    20
 72
     3
  0
VERTEX
  8
I-CAP
  5
B3
 10
129.342152
 20
-47.935487
 30
17.426209
 70
    64
  0
VERTEX
  8
I-CAP
  5
B4
 10
129.342152
 20
-48.440487
 30
17.426209
 70
    64
  0
VERTEX
  8
I-CAP
  5
B5
 10
129.342152
 20
-48.945487
 30
17.426209
 70
    64
  0
VERTEX
  8
I-CAP
  5
B6
 10
127.958031
 20
-47.935487
 30
8.687208
 70
    64
  0
VERTEX
  8
I-CAP
  5
B7
 10
127.958031
 20
-48.440487
 30
8.687208
 70
    64
  0
VERTEX
  8
I-CAP
  5
B8
 10
127.958031
 20
-48.945487
 30
8.687208
 70
    64
  0
VERTEX
  8
I-CAP
  5
B9
 10
123.941153
 20
-47.935487
 30
0.803642
 70
    64
  0
VERTEX
  8
I-CAP
  5
BA
 10
123.941153
 20
-48.440487
 30
0.803642
 70
    64
  0
VERTEX
  8
I-CAP
  5
BB
 10
123.941153
 20
-48.945487
 30
0.803642
 70
    64
  0
VERTEX
  8
I-CAP
  5
BC
 10
117.684719
 20
-47.935487
 30
-5.452792
 70
    64
  0
VERTEX
  8
I-CAP
  5
BD
 10
117.684719
 20
-48.440487
 30
-5.452792
 70
    64
  0
VERTEX
  8
I-CAP
  5
BE
 10
117.684719
 20
-48.945487
 30
-5.452792
 70
    64
  0
VERTEX
  8
I-CAP
  5
BF
 10
109.801153
 20
-47.935487
 30
-9.469669
 70
    64
  0
VERTEX
  8
I-CAP
  5
C0
 10
109.801153
 20
-48.440487
 30
-9.469669
 70
    64
  0
VERTEX
  8
I-CAP
  5
C1
 10
109.801153
 20
-48.945487
 30
-9.469669
 70
    64
  0
VERTEX
  8
I-CAP
  5
C2
 10
101.062152
 20
-47.935487
 30
-10.853791
 70
    64
  0
VERTEX
  8
I-CAP
  5
C3
 10
101.062152
 20
-48.440487
 30
-10.853791
 70
    64
  0
VERTEX
  8
I-CAP
  5
C4
 10
101.062152
 20
-48.945487
 30
-10.853791
 70
    64
  0
VERTEX
  8
I-CAP
  5
C5
 10
92.323152
 20
-47.935487
 30
-9.469669
 70
    64
  0
VERTEX
  8
I-CAP
  5
C6
 10
92.323152
 20
-48.440487
 30
-9.469669
 70
    64
  0
VERTEX
  8
I-CAP
  5
C7
 10
92.323152
 20
-48.945487
 30
-9.469669
 70
    64
  0
VERTEX
  8
I-CAP
  5
C8
 10
84.439585
 20
-47.935487
 30
-5.452792
 70
    64
  0
VERTEX
  8
I-CAP
  5
C9
 10
84.439585
 20
-48.440487
 30
-5.452792
 70
    64
  0
VERTEX
  8
I-CAP
  5
CA
 10
84.439585
 20
-48.945487
 30
-5.452792
 70
    64
  0
VERTEX
  8
I-CAP
  5
CB
 10
78.183152
 20
-47.935487
 30
0.803642
 70
    64
  0
VERTEX
  8
I-CAP
  5
CC
 10
78.183152
 20
-48.440487
 30
0.803642
 70
    64
  0
VERTEX
  8
I-CAP
  5
CD
 10
78.183152
 20
-48.945487
 30
0.803642
 70
    64
  0
VERTEX
  8
I-CAP
  5
CE
 10
74.166274
 20
-47.935487
 30
8.687208
 70
    64
  0
VERTEX
  8
I-CAP
  5
CF
 10
74.166274
 20
-48.440487
 30
8.687208
 70
    64
  0
VERTEX
  8
I-CAP
  5
D0
 10
74.166274
 20
-48.945487
 30
8.687208
 70
    64
  0
VERTEX
  8
I-CAP
  5
D1
 10
72.782152
 20
-47.935487
 30
17.426209
 70
    64
  0
VERTEX
  8
I-CAP
  5
D2
 10
72.782152
 20
-48.440487
 30
17.426209
 70
    64
  0
VERTEX
  8
I-CAP
  5
D3
 10
72.782152
 20
-48.945487
 30
17.426209
 70
    64
  0
VERTEX
  8
I-CAP
  5
D4
 10
74.166274
 20
-47.935487
 30
26.16521
 70
    64
  0
VERTEX
  8
I-CAP
  5
D5
 10
74.166274
 20
-48.440487
 30
26.16521
 70
    64
  0
VERTEX
  8
I-CAP
  5
D6
 10
74.166274
 20
-48.945487
 30
26.16521
 70
    64
  0
VERTEX
  8
I-CAP
  5
D7
 10
78.183152
 20
-47.935487
 30
34.048776
 70
    64
  0
VERTEX
  8
I-CAP
  5
D8
 10
78.183152
 20
-48.440487
 30
34.048776
 70
    64
  0
VERTEX
  8
I-CAP
  5
D9
 10
78.183152
 20
-48.945487
 30
34.048776
 70
    64
  0
VERTEX
  8
I-CAP
  5
DA
 10
84.439585
 20
-47.935487
 30
40.30521
 70
    64
  0
VERTEX
  8
I-CAP
  5
DB
 10
84.439585
 20
-48.440487
 30
40.30521
 70
    64
  0
VERTEX
  8
I-CAP
  5
DC
 10
84.439585
 20
-48.945487
 30
40.30521
 70
    64
  0
VERTEX
  8
I-CAP
  5
DD
 10
92.323152
 20
-47.935487
 30
44.322087
 70
    64
  0
VERTEX
  8
I-CAP
  5
DE
 10
92.323152
 20
-48.440487
 30
44.322087
 70
    64
  0
VERTEX
  8
I-CAP
  5
DF
 10
92.323152
 20
-48.945487
 30
44.322087
 70
    64
  0
VERTEX
  8
I-CAP
  5
E0
 10
101.062152
 20
-47.935487
 30
45.706209
 70
    64
  0
VERTEX
  8
I-CAP
  5
E1
 10
101.062152
 20
-48.440487
 30
45.706209
 70
    64
  0
VERTEX
  8
I-CAP
  5
E2
 10
101.062152
 20
-48.945487
 30
45.706209
 70
    64
  0
VERTEX
  8
I-CAP
  5
E3
 10
109.801153
 20
-47.935487
 30
44.322087
 70
    64
  0
VERTEX
  8
I-CAP
  5
E4
 10
109.801153
 20
-48.440487
 30
44.322087
 70
    64
  0
VERTEX
  8
I-CAP
  5
E5
 10
109.801153
 20
-48.945487
 30
44.322087
 70
    64
  0
VERTEX
  8
I-CAP
  5
E6
 10
117.684719
 20
-47.935487
 30
40.30521
 70
    64
  0
VERTEX
  8
I-CAP
  5
E7
 10
117.684719
 20
-48.440487
 30
40.30521
 70
    64
  0
VERTEX
  8
I-CAP
  5
E8
 10
117.684719
 20
-48.945487
 30
40.30521
 70
    64
  0
VERTEX
  8
I-CAP
  5
E9
 10
123.941153
 20
-47.935487
 30
34.048776
 70
    64
  0
VERTEX
  8
I-CAP
  5
EA
 10
123.941153
 20
-48.440487
 30
34.048776
 70
    64
  0
VERTEX
  8
I-CAP
  5
EB
 10
123.941153
 20
-48.945487
 30
34.048776
 70
    64
  0
VERTEX
  8
I-CAP
  5
EC
 10
127.958031
 20
-47.935487
 30
26.16521
 70
    64
  0
VERTEX
  8
I-CAP
  5
ED
 10
127.958031
 20
-48.440487
 30
26.16521
 70
    64
  0
VERTEX
  8
I-CAP
  5
EE
 10
127.958031
 20
-48.945487
 30
26.16521
 70
    64
  0
SEQEND
  8
I-CAP
  5
EF
  0
POLYLINE
  8
I-CAP
  5
F0
 66
     1
 10
0.0
 20
0.0
 30
0.0
 70
    17
 71
    20
 72
     3
  0
VERTEX
  8
I-CAP
  5
F1
 10
131.362152
 20
-47.935487
 30
17.426209
 70
    64
  0
VERTEX
  8
I-CAP
  5
F2
 10
130.352152
 20
-47.935487
 30
17.426209
 70
    64
  0
VERTEX
  8
I-CAP
  5
F3
 10
129.342152
 20
-47.935487
 30
17.426209
 70
    64
  0
VERTEX
  8
I-CAP
  5
F4
 10
129.879165
 20
-47.935487
 30
8.062994
 70
    64
  0
VERTEX
  8
I-CAP
  5
F5
 10
128.918598
 20
-47.935487
 30
8.375101
 70
    64
  0
VERTEX
  8
I-CAP
  5
F6
 10
127.958031
 20
-47.935487
 30
8.687208
 70
    64
  0
VERTEX
  8
I-CAP
  5
F7
 10
125.575367
 20
-47.935487
 30
-0.383684
 70
    64
  0
VERTEX
  8
I-CAP
  5
F8
 10
124.75826
 20
-47.935487
 30
0.209979
 70
    64
  0
VERTEX
  8
I-CAP
  5
F9
 10
123.941153
 20
-47.935487
 30
0.803642
 70
    64
  0
VERTEX
  8
I-CAP
  5
FA
 10
118.872046
 20
-47.935487
 30
-7.087006
 70
    64
  0
VERTEX
  8
I-CAP
  5
FB
 10
118.278382
 20
-47.935487
 30
-6.269899
 70
    64
  0
VERTEX
  8
I-CAP
  5
FC
 10
117.684719
 20
-47.935487
 30
-5.452792
 70
    64
  0
VERTEX
  8
I-CAP
  5
FD
 10
110.425367
 20
-47.935487
 30
-11.390803
 70
    64
  0
VERTEX
  8
I-CAP
  5
FE
 10
110.11326
 20
-47.935487
 30
-10.430236
 70
    64
  0
VERTEX
  8
I-CAP
  5
FF
 10
109.801153
 20
-47.935487
 30
-9.469669
 70
    64
  0
VERTEX
  8
I-CAP
  5
100
 10
101.062152
 20
-47.935487
 30
-12.873791
 70
    64
  0
VERTEX
  8
I-CAP
  5
101
 10
101.062152
 20
-47.935487
 30
-11.863791
 70
    64
  0
VERTEX
  8
I-CAP
  5
102
 10
101.062152
 20
-47.935487
 30
-10.853791
 70
    64
  0
VERTEX
  8
I-CAP
  5
103
 10
91.698937
 20
-47.935487
 30
-11.390803
 70
    64
  0
VERTEX
  8
I-CAP
  5
104
 10
92.011045
 20
-47.935487
 30
-10.430236
 70
    64
  0
VERTEX
  8
I-CAP
  5
105
 10
92.323152
 20
-47.935487
 30
-9.469669
 70
    64
  0
VERTEX
  8
I-CAP
  5
106
 10
83.252259
 20
-47.935487
 30
-7.087006
 70
    64
  0
VERTEX
  8
I-CAP
  5
107
 10
83.845922
 20
-47.935487
 30
-6.269899
 70
    64
  0
VERTEX
  8
I-CAP
  5
108
 10
84.439585
 20
-47.935487
 30
-5.452792
 70
    64
  0
VERTEX
  8
I-CAP
  5
109
 10
76.548937
 20
-47.935487
 30
-0.383684
 70
    64
  0
VERTEX
  8
I-CAP
  5
10A
 10
77.366045
 20
-47.935487
 30
0.209979
 70
    64
  0
VERTEX
  8
I-CAP
  5
10B
 10
78.183152
 20
-47.935487
 30
0.803642
 70
    64
  0
VERTEX
  8
I-CAP
  5
10C
 10
72.24514
 20
-47.935487
 30
8.062994
 70
    64
  0
VERTEX
  8
I-CAP
  5
10D
 10
73.205707
 20
-47.935487
 30
8.375101
 70
    64
  0
VERTEX
  8
I-CAP
  5
10E
 10
74.166274
 20
-47.935487
 30
8.687208
 70
    64
  0
VERTEX
  8
I-CAP
  5
10F
 10
70.762152
 20
-47.935487
 30
17.426209
 70
    64
  0
VERTEX
  8
I-CAP
  5
110
 10
71.772152
 20
-47.935487
 30
17.426209
 70
    64
  0
VERTEX
  8
I-CAP
  5
111
 10
72.782152
 20
-47.935487
 30
17.426209
 70
    64
  0
VERTEX
  8
I-CAP
  5
112
 10
72.24514
 20
-47.935487
 30
26.789424
 70
    64
  0
VERTEX
  8
I-CAP
  5
113
 10
73.205707
 20
-47.935487
 30
26.477317
 70
    64
  0
VERTEX
  8
I-CAP
  5
114
 10
74.166274
 20
-47.935487
 30
26.16521
 70
    64
  0
VERTEX
  8
I-CAP
  5
115
 10
76.548937
 20
-47.935487
 30
35.236102
 70
    64
  0
VERTEX
  8
I-CAP
  5
116
 10
77.366045
 20
-47.935487
 30
34.642439
 70
    64
  0
VERTEX
  8
I-CAP
  5
117
 10
78.183152
 20
-47.935487
 30
34.048776
 70
    64
  0
VERTEX
  8
I-CAP
  5
118
 10
83.252259
 20
-47.935487
 30
41.939424
 70
    64
  0
VERTEX
  8
I-CAP
  5
119
 10
83.845922
 20
-47.935487
 30
41.122317
 70
    64
  0
VERTEX
  8
I-CAP
  5
11A
 10
84.439585
 20
-47.935487
 30
40.30521
 70
    64
  0
VERTEX
  8
I-CAP
  5
11B
 10
91.698937
 20
-47.935487
 30
46.243221
 70
    64
  0
VERTEX
  8
I-CAP
  5
11C
 10
92.011045
 20
-47.935487
 30
45.282654
 70
    64
  0
VERTEX
  8
I-CAP
  5
11D
 10
92.323152
 20
-47.935487
 30
44.322087
 70
    64
  0
VERTEX
  8
I-CAP
  5
11E
 10
101.062152
 20
-47.935487
 30
47.726209
 70
    64
  0
VERTEX
  8
I-CAP
  5
11F
 10
101.062152
 20
-47.935487
 30
46.716209
 70
    64
  0
VERTEX
  8
I-CAP
  5
120
 10
101.062152
 20
-47.935487
 30
45.706209
 70
    64
  0
VERTEX
  8
I-CAP
  5
121
 10
110.425367
 20
-47.935487
 30
46.243221
 70
    64
  0
VERTEX
  8
I-CAP
  5
122
 10
110.11326
 20
-47.935487
 30
45.282654
 70
    64
  0
VERTEX
  8
I-CAP
  5
123
 10
109.801153
 20
-47.935487
 30
44.322087
 70
    64
  0
VERTEX
  8
I-CAP
  5
124
 10
118.872046
 20
-47.935487
 30
41.939424
 70
    64
  0
VERTEX
  8
I-CAP
  5
125
 10
118.278382
 20
-47.935487
 30
41.122317
 70
    64
  0
VERTEX
  8
I-CAP
  5
126
 10
117.684719
 20
-47.935487
 30
40.30521
 70
    64
  0
VERTEX
  8
I-CAP
  5
127
 10
125.575367
 20
-47.935487
 30
35.236102
 70
    64
  0
VERTEX
  8
I-CAP
  5
128
 10
124.75826
 20
-47.935487
 30
34.642439
 70
    64
  0
VERTEX
  8
I-CAP
  5
129
 10
123.941153
 20
-47.935487
 30
34.048776
 70
    64
  0
VERTEX
  8
I-CAP
  5
12A
 10
129.879165
 20
-47.935487
 30
26.789424
 70
    64
  0
VERTEX
  8
I-CAP
  5
12B
 10
128.918598
 20
-47.935487
 30
26.477317
 70
    64
  0
VERTEX
  8
I-CAP
  5
12C
 10
127.958031
 20
-47.935487
 30
26.16521
 70
    64
  0
SEQEND
  8
I-CAP
  5
12D
  0
POLYLINE
  8
I-CAP
  5
12E
 66
     1
 10
0.0
 20
0.0
 30
0.0
 70
    17
 71
    20
 72
     3
  0
VERTEX
  8
I-CAP
  5
12F
 10
127.322152
 20
-48.945487
 30
17.426209
 70
    64
  0
VERTEX
  8
I-CAP
  5
130
 10
128.332152
 20
-48.945487
 30
17.426209
 70
    64
  0
VERTEX
  8
I-CAP
  5
131
 10
129.342152
 20
-48.945487
 30
17.426209
 70
    64
  0
VERTEX
  8
I-CAP
  5
132
 10
126.036897
 20
-48.945487
 30
9.311423
 70
    64
  0
VERTEX
  8
I-CAP
  5
133
 10
126.997464
 20
-48.945487
 30
8.999316
 70
    64
  0
VERTEX
  8
I-CAP
  5
134
 10
127.958031
 20
-48.945487
 30
8.687208
 70
    64
  0
VERTEX
  8
I-CAP
  5
135
 10
122.306939
 20
-48.945487
 30
1.990968
 70
    64
  0
VERTEX
  8
I-CAP
  5
136
 10
123.124046
 20
-48.945487
 30
1.397305
 70
    64
  0
VERTEX
  8
I-CAP
  5
137
 10
123.941153
 20
-48.945487
 30
0.803642
 70
    64
  0
VERTEX
  8
I-CAP
  5
138
 10
116.497393
 20
-48.945487
 30
-3.818577
 70
    64
  0
VERTEX
  8
I-CAP
  5
139
 10
117.091056
 20
-48.945487
 30
-4.635684
 70
    64
  0
VERTEX
  8
I-CAP
  5
13A
 10
117.684719
 20
-48.945487
 30
-5.452792
 70
    64
  0
VERTEX
  8
I-CAP
  5
13B
 10
109.176939
 20
-48.945487
 30
-7.548535
 70
    64
  0
VERTEX
  8
I-CAP
  5
13C
 10
109.489046
 20
-48.945487
 30
-8.509102
 70
    64
  0
VERTEX
  8
I-CAP
  5
13D
 10
109.801153
 20
-48.945487
 30
-9.469669
 70
    64
  0
VERTEX
  8
I-CAP
  5
13E
 10
101.062152
 20
-48.945487
 30
-8.833791
 70
    64
  0
VERTEX
  8
I-CAP
  5
13F
 10
101.062152
 20
-48.945487
 30
-9.843791
 70
    64
  0
VERTEX
  8
I-CAP
  5
140
 10
101.062152
 20
-48.945487
 30
-10.853791
 70
    64
  0
VERTEX
  8
I-CAP
  5
141
 10
92.947366
 20
-48.945487
 30
-7.548535
 70
    64
  0
VERTEX
  8
I-CAP
  5
142
 10
92.635259
 20
-48.945487
 30
-8.509102
 70
    64
  0
VERTEX
  8
I-CAP
  5
143
 10
92.323152
 20
-48.945487
 30
-9.469669
 70
    64
  0
VERTEX
  8
I-CAP
  5
144
 10
85.626912
 20
-48.945487
 30
-3.818577
 70
    64
  0
VERTEX
  8
I-CAP
  5
145
 10
85.033249
 20
-48.945487
 30
-4.635684
 70
    64
  0
VERTEX
  8
I-CAP
  5
146
 10
84.439585
 20
-48.945487
 30
-5.452792
 70
    64
  0
VERTEX
  8
I-CAP
  5
147
 10
79.817366
 20
-48.945487
 30
1.990968
 70
    64
  0
VERTEX
  8
I-CAP
  5
148
 10
79.000259
 20
-48.945487
 30
1.397305
 70
    64
  0
VERTEX
  8
I-CAP
  5
149
 10
78.183152
 20
-48.945487
 30
0.803642
 70
    64
  0
VERTEX
  8
I-CAP
  5
14A
 10
76.087408
 20
-48.945487
 30
9.311423
 70
    64
  0
VERTEX
  8
I-CAP
  5
14B
 10
75.126841
 20
-48.945487
 30
8.999316
 70
    64
  0
VERTEX
  8
I-CAP
  5
14C
 10
74.166274
 20
-48.945487
 30
8.687208
 70
    64
  0
VERTEX
  8
I-CAP
  5
14D
 10
74.802152
 20
-48.945487
 30
17.426209
 70
    64
  0
VERTEX
  8
I-CAP
  5
14E
 10
73.792152
 20
-48.945487
 30
17.426209
 70
    64
  0
VERTEX
  8
I-CAP
  5
14F
 10
72.782152
 20
-48.945487
 30
17.426209
 70
    64
  0
VERTEX
  8
I-CAP
  5
150
 10
76.087408
 20
-48.945487
 30
25.540995
 70
    64
  0
VERTEX
  8
I-CAP
  5
151
 10
75.126841
 20
-48.945487
 30
25.853102
 70
    64
  0
VERTEX
  8
I-CAP
  5
152
 10
74.166274
 20
-48.945487
 30
26.16521
 70
    64
  0
VERTEX
  8
I-CAP
  5
153
 10
79.817366
 20
-48.945487
 30
32.86145
 70
    64
  0
VERTEX
  8
I-CAP
  5
154
 10
79.000259
 20
-48.945487
 30
33.455113
 70
    64
  0
VERTEX
  8
I-CAP
  5
155
 10
78.183152
 20
-48.945487
 30
34.048776
 70
    64
  0
VERTEX
  8
I-CAP
  5
156
 10
85.626912
 20
-48.945487
 30
38.670995
 70
    64
  0
VERTEX
  8
I-CAP
  5
157
 10
85.033249
 20
-48.945487
 30
39.488102
 70
    64
  0
VERTEX
  8
I-CAP
  5
158
 10
84.439585
 20
-48.945487
 30
40.30521
 70
    64
  0
VERTEX
  8
I-CAP
  5
159
 10
92.947366
 20
-48.945487
 30
42.400953
 70
    64
  0
VERTEX
  8
I-CAP
  5
15A
 10
92.635259
 20
-48.945487
 30
43.36152
 70
    64
  0
VERTEX
  8
I-CAP
  5
15B
 10
92.323152
 20
-48.945487
 30
44.322087
 70
    64
  0
VERTEX
  8
I-CAP
  5
15C
 10
101.062152
 20
-48.945487
 30
43.686209
 70
    64
  0
VERTEX
  8
I-CAP
  5
15D
 10
101.062152
 20
-48.945487
 30
44.696209
 70
    64
  0
VERTEX
  8
I-CAP
  5
15E
 10
101.062152
 20
-48.945487
 30
45.706209
 70
    64
  0
VERTEX
  8
I-CAP
  5
15F
 10
109.176939
 20
-48.945487
 30
42.400953
 70
    64
  0
VERTEX
  8
I-CAP
  5
160
 10
109.489046
 20
-48.945487
 30
43.36152
 70
    64
  0
VERTEX
  8
I-CAP
  5
161
 10
109.801153
 20
-48.945487
 30
44.322087
 70
    64
  0
VERTEX
  8
I-CAP
  5
162
 10
116.497393
 20
-48.945487
 30
38.670995
 70
    64
  0
VERTEX
  8
I-CAP
  5
163
 10
117.091056
 20
-48.945487
 30
39.488102
 70
    64
  0
VERTEX
  8
I-CAP
  5
164
 10
117.684719
 20
-48.945487
 30
40.30521
 70
    64
  0
VERTEX
  8
I-CAP
  5
165
 10
122.306939
 20
-48.945487
 30
32.86145
 70
    64
  0
VERTEX
  8
I-CAP
  5
166
 10
123.124046
 20
-48.945487
 30
33.455113
 70
    64
  0
VERTEX
  8
I-CAP
  5
167
 10
123.941153
 20
-48.945487
 30
34.048776
 70
    64
  0
VERTEX
  8
I-CAP
  5
168
 10
126.036897
 20
-48.945487
 30
25.540995
 70
    64
  0
VERTEX
  8
I-CAP
  5
169
 10
126.997464
 20
-48.945487
 30
25.853102
 70
    64
  0
VERTEX
  8
I-CAP
  5
16A
 10
127.958031
 20
-48.945487
 30
26.16521
 70
    64
  0
SEQEND
  8
I-CAP
  5
16B
  0
POLYLINE
  8
I-CAP
  5
16C
 66
     1
 10
0.0
 20
0.0
 30
0.0
 70
    17
 71
    20
 72
     3
  0
VERTEX
  8
I-CAP
  5
16D
 10
131.362152
 20
-47.935487
 30
17.426209
 70
    64
  0
VERTEX
  8
I-CAP
  5
16E
 10
132.372152
 20
-45.410487
 30
17.426209
 70
    64
  0
VERTEX
  8
I-CAP
  5
16F
 10
133.382152
 20
-42.885487
 30
17.426209
 70
    64
  0
VERTEX
  8
I-CAP
  5
170
 10
129.879165
 20
-47.935487
 30
8.062994
 70
    64
  0
VERTEX
  8
I-CAP
  5
171
 10
130.839732
 20
-45.410487
 30
7.750887
 70
    64
  0
VERTEX
  8
I-CAP
  5
172
 10
131.800299
 20
-42.885487
 30
7.43878
 70
    64
  0
VERTEX
  8
I-CAP
  5
173
 10
125.575367
 20
-47.935487
 30
-0.383684
 70
    64
  0
VERTEX
  8
I-CAP
  5
174
 10
126.392475
 20
-45.410487
 30
-0.977347
 70
    64
  0
VERTEX
  8
I-CAP
  5
175
 10
127.209582
 20
-42.885487
 30
-1.57101
 70
    64
  0
VERTEX
  8
I-CAP
  5
176
 10
118.872046
 20
-47.935487
 30
-7.087006
 70
    64
  0
VERTEX
  8
I-CAP
  5
177
 10
119.465709
 20
-45.410487
 30
-7.904113
 70
    64
  0
VERTEX
  8
I-CAP
  5
178
 10
120.059372
 20
-42.885487
 30
-8.72122
 70
    64
  0
VERTEX
  8
I-CAP
  5
179
 10
110.425367
 20
-47.935487
 30
-11.390803
 70
    64
  0
VERTEX
  8
I-CAP
  5
17A
 10
110.737475
 20
-45.410487
 30
-12.35137
 70
    64
  0
VERTEX
  8
I-CAP
  5
17B
 10
111.049582
 20
-42.885487
 30
-13.311938
 70
    64
  0
VERTEX
  8
I-CAP
  5
17C
 10
101.062152
 20
-47.935487
 30
-12.873791
 70
    64
  0
VERTEX
  8
I-CAP
  5
17D
 10
101.062152
 20
-45.410487
 30
-13.883791
 70
    64
  0
VERTEX
  8
I-CAP
  5
17E
 10
101.062152
 20
-42.885487
 30
-14.893791
 70
    64
  0
VERTEX
  8
I-CAP
  5
17F
 10
91.698937
 20
-47.935487
 30
-11.390803
 70
    64
  0
VERTEX
  8
I-CAP
  5
180
 10
91.38683
 20
-45.410487
 30
-12.35137
 70
    64
  0
VERTEX
  8
I-CAP
  5
181
 10
91.074723
 20
-42.885487
 30
-13.311938
 70
    64
  0
VERTEX
  8
I-CAP
  5
182
 10
83.252259
 20
-47.935487
 30
-7.087006
 70
    64
  0
VERTEX
  8
I-CAP
  5
183
 10
82.658596
 20
-45.410487
 30
-7.904113
 70
    64
  0
VERTEX
  8
I-CAP
  5
184
 10
82.064933
 20
-42.885487
 30
-8.72122
 70
    64
  0
VERTEX
  8
I-CAP
  5
185
 10
76.548937
 20
-47.935487
 30
-0.383684
 70
    64
  0
VERTEX
  8
I-CAP
  5
186
 10
75.73183
 20
-45.410487
 30
-0.977347
 70
    64
  0
VERTEX
  8
I-CAP
  5
187
 10
74.914723
 20
-42.885487
 30
-1.57101
 70
    64
  0
VERTEX
  8
I-CAP
  5
188
 10
72.24514
 20
-47.935487
 30
8.062994
 70
    64
  0
VERTEX
  8
I-CAP
  5
189
 10
71.284573
 20
-45.410487
 30
7.750887
 70
    64
  0
VERTEX
  8
I-CAP
  5
18A
 10
70.324006
 20
-42.885487
 30
7.43878
 70
    64
  0
VERTEX
  8
I-CAP
  5
18B
 10
70.762152
 20
-47.935487
 30
17.426209
 70
    64
  0
VERTEX
  8
I-CAP
  5
18C
 10
69.752152
 20
-45.410487
 30
17.426209
 70
    64
  0
VERTEX
  8
I-CAP
  5
18D
 10
68.742152
 20
-42.885487
 30
17.426209
 70
    64
  0
VERTEX
  8
I-CAP
  5
18E
 10
72.24514
 20
-47.935487
 30
26.789424
 70
    64
  0
VERTEX
  8
I-CAP
  5
18F
 10
71.284573
 20
-45.410487
 30
27.101531
 70
    64
  0
VERTEX
  8
I-CAP
  5
190
 10
70.324006
 20
-42.885487
 30
27.413638
 70
    64
  0
VERTEX
  8
I-CAP
  5
191
 10
76.548937
 20
-47.935487
 30
35.236102
 70
    64
  0
VERTEX
  8
I-CAP
  5
192
 10
75.73183
 20
-45.410487
 30
35.829765
 70
    64
  0
VERTEX
  8
I-CAP
  5
193
 10
74.914723
 20
-42.885487
 30
36.423428
 70
    64
  0
VERTEX
  8
I-CAP
  5
194
 10
83.252259
 20
-47.935487
 30
41.939424
 70
    64
  0
VERTEX
  8
I-CAP
  5
195
 10
82.658596
 20
-45.410487
 30
42.756531
 70
    64
  0
VERTEX
  8
I-CAP
  5
196
 10
82.064933
 20
-42.885487
 30
43.573638
 70
    64
  0
VERTEX
  8
I-CAP
  5
197
 10
91.698937
 20
-47.935487
 30
46.243221
 70
    64
  0
VERTEX
  8
I-CAP
  5
198
 10
91.38683
 20
-45.410487
 30
47.203789
 70
    64
  0
VERTEX
  8
I-CAP
  5
199
 10
91.074723
 20
-42.885487
 30
48.164356
 70
    64
  0
VERTEX
  8
I-CAP
  5
19A
 10
101.062152
 20
-47.935487
 30
47.726209
 70
    64
  0
VERTEX
  8
I-CAP
  5
19B
 10
101.062152
 20
-45.410487
 30
48.736209
 70
    64
  0
VERTEX
  8
I-CAP
  5
19C
 10
101.062152
 20
-42.885487
 30
49.746209
 70
    64
  0
VERTEX
  8
I-CAP
  5
19D
 10
110.425367
 20
-47.935487
 30
46.243221
 70
    64
  0
VERTEX
  8
I-CAP
  5
19E
 10
110.737475
 20
-45.410487
 30
47.203789
 70
    64
  0
VERTEX
  8
I-CAP
  5
19F
 10
111.049582
 20
-42.885487
 30
48.164356
 70
    64
  0
VERTEX
  8
I-CAP
  5
1A0
 10
118.872046
 20
-47.935487
 30
41.939424
 70
    64
  0
VERTEX
  8
I-CAP
  5
1A1
 10
119.465709
 20
-45.410487
 30
42.756531
 70
    64
  0
VERTEX
  8
I-CAP
  5
1A2
 10
120.059372
 20
-42.885487
 30
43.573638
 70
    64
  0
VERTEX
  8
I-CAP
  5
1A3
 10
125.575367
 20
-47.935487
 30
35.236102
 70
    64
  0
VERTEX
  8
I-CAP
  5
1A4
 10
126.392475
 20
-45.410487
 30
35.829765
 70
    64
  0
VERTEX
  8
I-CAP
  5
1A5
 10
127.209582
 20
-42.885487
 30
36.423428
 70
    64
  0
VERTEX
  8
I-CAP
  5
1A6
 10
129.879165
 20
-47.935487
 30
26.789424
 70
    64
  0
VERTEX
  8
I-CAP
  5
1A7
 10
130.839732
 20
-45.410487
 30
27.101531
 70
    64
  0
VERTEX
  8
I-CAP
  5
1A8
 10
131.800299
 20
-42.885487
 30
27.413638
 70
    64
  0
SEQEND
  8
I-CAP
  5
1A9
  0
POLYLINE
  8
I-CAP
  5
1AA
 66
     1
 10
0.0
 20
0.0
 30
0.0
 70
    17
 71
    20
 72
     3
  0
VERTEX
  8
I-CAP
  5
1AB
 10
127.322152
 20
-42.885487
 30
17.426209
 70
    64
  0
VERTEX
  8
I-CAP
  5
1AC
 10
127.322152
 20
-45.915487
 30
17.426209
 70
    64
  0
VERTEX
  8
I-CAP
  5
1AD
 10
127.322152
 20
-48.945487
 30
17.426209
 70
    64
  0
VERTEX
  8
I-CAP
  5
1AE
 10
126.036897
 20
-42.885487
 30
9.311423
 70
    64
  0
VERTEX
  8
I-CAP
  5
1AF
 10
126.036897
 20
-45.915487
 30
9.311423
 70
    64
  0
VERTEX
  8
I-CAP
  5
1B0
 10
126.036897
 20
-48.945487
 30
9.311423
 70
    64
  0
VERTEX
  8
I-CAP
  5
1B1
 10
122.306939
 20
-42.885487
 30
1.990968
 70
    64
  0
VERTEX
  8
I-CAP
  5
1B2
 10
122.306939
 20
-45.915487
 30
1.990968
 70
    64
  0
VERTEX
  8
I-CAP
  5
1B3
 10
122.306939
 20
-48.945487
 30
1.990968
 70
    64
  0
VERTEX
  8
I-CAP
  5
1B4
 10
116.497393
 20
-42.885487
 30
-3.818577
 70
    64
  0
VERTEX
  8
I-CAP
  5
1B5
 10
116.497393
 20
-45.915487
 30
-3.818577
 70
    64
  0
VERTEX
  8
I-CAP
  5
1B6
 10
116.497393
 20
-48.945487
 30
-3.818577
 70
    64
  0
VERTEX
  8
I-CAP
  5
1B7
 10
109.176939
 20
-42.885487
 30
-7.548535
 70
    64
  0
VERTEX
  8
I-CAP
  5
1B8
 10
109.176939
 20
-45.915487
 30
-7.548535
 70
    64
  0
VERTEX
  8
I-CAP
  5
1B9
 10
109.176939
 20
-48.945487
 30
-7.548535
 70
    64
  0
VERTEX
  8
I-CAP
  5
1BA
 10
101.062152
 20
-42.885487
 30
-8.833791
 70
    64
  0
VERTEX
  8
I-CAP
  5
1BB
 10
101.062152
 20
-45.915487
 30
-8.833791
 70
    64
  0
VERTEX
  8
I-CAP
  5
1BC
 10
101.062152
 20
-48.945487
 30
-8.833791
 70
    64
  0
VERTEX
  8
I-CAP
  5
1BD
 10
92.947366
 20
-42.885487
 30
-7.548535
 70
    64
  0
VERTEX
  8
I-CAP
  5
1BE
 10
92.947366
 20
-45.915487
 30
-7.548535
 70
    64
  0
VERTEX
  8
I-CAP
  5
1BF
 10
92.947366
 20
-48.945487
 30
-7.548535
 70
    64
  0
VERTEX
  8
I-CAP
  5
1C0
 10
85.626912
 20
-42.885487
 30
-3.818577
 70
    64
  0
VERTEX
  8
I-CAP
  5
1C1
 10
85.626912
 20
-45.915487
 30
-3.818577
 70
    64
  0
VERTEX
  8
I-CAP
  5
1C2
 10
85.626912
 20
-48.945487
 30
-3.818577
 70
    64
  0
VERTEX
  8
I-CAP
  5
1C3
 10
79.817366
 20
-42.885487
 30
1.990968
 70
    64
  0
VERTEX
  8
I-CAP
  5
1C4
 10
79.817366
 20
-45.915487
 30
1.990968
 70
    64
  0
VERTEX
  8
I-CAP
  5
1C5
 10
79.817366
 20
-48.945487
 30
1.990968
 70
    64
  0
VERTEX
  8
I-CAP
  5
1C6
 10
76.087408
 20
-42.885487
 30
9.311423
 70
    64
  0
VERTEX
  8
I-CAP
  5
1C7
 10
76.087408
 20
-45.915487
 30
9.311423
 70
    64
  0
VERTEX
  8
I-CAP
  5
1C8
 10
76.087408
 20
-48.945487
 30
9.311423
 70
    64
  0
VERTEX
  8
I-CAP
  5
1C9
 10
74.802152
 20
-42.885487
 30
17.426209
 70
    64
  0
VERTEX
  8
I-CAP
  5
1CA
 10
74.802152
 20
-45.915487
 30
17.426209
 70
    64
  0
VERTEX
  8
I-CAP
  5
1CB
 10
74.802152
 20
-48.945487
 30
17.426209
 70
    64
  0
VERTEX
  8
I-CAP
  5
1CC
 10
76.087408
 20
-42.885487
 30
25.540995
 70
    64
  0
VERTEX
  8
I-CAP
  5
1CD
 10
76.087408
 20
-45.915487
 30
25.540995
 70
    64
  0
VERTEX
  8
I-CAP
  5
1CE
 10
76.087408
 20
-48.945487
 30
25.540995
 70
    64
  0
VERTEX
  8
I-CAP
  5
1CF
 10
79.817366
 20
-42.885487
 30
32.86145
 70
    64
  0
VERTEX
  8
I-CAP
  5
1D0
 10
79.817366
 20
-45.915487
 30
32.86145
 70
    64
  0
VERTEX
  8
I-CAP
  5
1D1
 10
79.817366
 20
-48.945487
 30
32.86145
 70
    64
  0
VERTEX
  8
I-CAP
  5
1D2
 10
85.626912
 20
-42.885487
 30
38.670995
 70
    64
  0
VERTEX
  8
I-CAP
  5
1D3
 10
85.626912
 20
-45.915487
 30
38.670995
 70
    64
  0
VERTEX
  8
I-CAP
  5
1D4
 10
85.626912
 20
-48.945487
 30
38.670995
 70
    64
  0
VERTEX
  8
I-CAP
  5
1D5
 10
92.947366
 20
-42.885487
 30
42.400953
 70
    64
  0
VERTEX
  8
I-CAP
  5
1D6
 10
92.947366
 20
-45.915487
 30
42.400953
 70
    64
  0
VERTEX
  8
I-CAP
  5
1D7
 10
92.947366
 20
-48.945487
 30
42.400953
 70
    64
  0
VERTEX
  8
I-CAP
  5
1D8
 10
101.062152
 20
-42.885487
 30
43.686209
 70
    64
  0
VERTEX
  8
I-CAP
  5
1D9
 10
101.062152
 20
-45.915487
 30
43.686209
 70
    64
  0
VERTEX
  8
I-CAP
  5
1DA
 10
101.062152
 20
-48.945487
 30
43.686209
 70
    64
  0
VERTEX
  8
I-CAP
  5
1DB
 10
109.176939
 20
-42.885487
 30
42.400953
 70
    64
  0
VERTEX
  8
I-CAP
  5
1DC
 10
109.176939
 20
-45.915487
 30
42.400953
 70
    64
  0
VERTEX
  8
I-CAP
  5
1DD
 10
109.176939
 20
-48.945487
 30
42.400953
 70
    64
  0
VERTEX
  8
I-CAP
  5
1DE
 10
116.497393
 20
-42.885487
 30
38.670995
 70
    64
  0
VERTEX
  8
I-CAP
  5
1DF
 10
116.497393
 20
-45.915487
 30
38.670995
 70
    64
  0
VERTEX
  8
I-CAP
  5
1E0
 10
116.497393
 20
-48.945487
 30
38.670995
 70
    64
  0
VERTEX
  8
I-CAP
  5
1E1
 10
122.306939
 20
-42.885487
 30
32.86145
 70
    64
  0
VERTEX
  8
I-CAP
  5
1E2
 10
122.306939
 20
-45.915487
 30
32.86145
 70
    64
  0
VERTEX
  8
I-CAP
  5
1E3
 10
122.306939
 20
-48.945487
 30
32.86145
 70
    64
  0
VERTEX
  8
I-CAP
  5
1E4
 10
126.036897
 20
-42.885487
 30
25.540995
 70
    64
  0
VERTEX
  8
I-CAP
  5
1E5
 10
126.036897
 20
-45.915487
 30
25.540995
 70
    64
  0
VERTEX
  8
I-CAP
  5
1E6
 10
126.036897
 20
-48.945487
 30
25.540995
 70
    64
  0
SEQEND
  8
I-CAP
  5
1E7
  0
LINE
  8
I-CAP
  5
1E8
 10
127.322152
 20
-42.885487
 30
17.426209
 11
101.062152
 21
-42.885487
 31
17.426209
  0
POLYLINE
  8
I-CAP
  5
1EA
 66
     1
 10
0.0
 20
0.0
 30
0.0
 70
    17
 71
    20
 72
     3
  0
VERTEX
  8
I-CAP
  5
1EB
 10
101.062152
 20
-42.885487
 30
17.426209
 70
    64
  0
VERTEX
  8
I-CAP
  5
1EC
 10
114.192152
 20
-42.885487
 30
17.426209
 70
    64
  0
VERTEX
  8
I-CAP
  5
1ED
 10
127.322152
 20
-42.885487
 30
17.426209
 70
    64
  0
VERTEX
  8
I-CAP
  5
1EE
 10
101.062152
 20
-42.885487
 30
17.426209
 70
    64
  0
VERTEX
  8
I-CAP
  5
1EF
 10
113.549524
 20
-42.885487
 30
21.483602
 70
    64
  0
VERTEX
  8
I-CAP
  5
1F0
 10
126.036897
 20
-42.885487
 30
25.540995
 70
    64
  0
VERTEX
  8
I-CAP
  5
1F1
 10
101.062152
 20
-42.885487
 30
17.426209
 70
    64
  0
VERTEX
  8
I-CAP
  5
1F2
 10
111.684546
 20
-42.885487
 30
25.143829
 70
    64
  0
VERTEX
  8
I-CAP
  5
1F3
 10
122.306939
 20
-42.885487
 30
32.86145
 70
    64
  0
VERTEX
  8
I-CAP
  5
1F4
 10
101.062152
 20
-42.885487
 30
17.426209
 70
    64
  0
VERTEX
  8
I-CAP
  5
1F5
 10
108.779773
 20
-42.885487
 30
28.048602
 70
    64
  0
VERTEX
  8
I-CAP
  5
1F6
 10
116.497393
 20
-42.885487
 30
38.670995
 70
    64
  0
VERTEX
  8
I-CAP
  5
1F7
 10
101.062152
 20
-42.885487
 30
17.426209
 70
    64
  0
VERTEX
  8
I-CAP
  5
1F8
 10
105.119546
 20
-42.885487
 30
29.913581
 70
    64
  0
VERTEX
  8
I-CAP
  5
1F9
 10
109.176939
 20
-42.885487
 30
42.400953
 70
    64
  0
VERTEX
  8
I-CAP
  5
1FA
 10
101.062152
 20
-42.885487
 30
17.426209
 70
    64
  0
VERTEX
  8
I-CAP
  5
1FB
 10
101.062152
 20
-42.885487
 30
30.556209
 70
    64
  0
VERTEX
  8
I-CAP
  5
1FC
 10
101.062152
 20
-42.885487
 30
43.686209
 70
    64
  0
VERTEX
  8
I-CAP
  5
1FD
 10
101.062152
 20
-42.885487
 30
17.426209
 70
    64
  0
VERTEX
  8
I-CAP
  5
1FE
 10
97.004759
 20
-42.885487
 30
29.913581
 70
    64
  0
VERTEX
  8
I-CAP
  5
1FF
 10
92.947366
 20
-42.885487
 30
42.400953
 70
    64
  0
VERTEX
  8
I-CAP
  5
200
 10
101.062152
 20
-42.885487
 30
17.426209
 70
    64
  0
VERTEX
  8
I-CAP
  5
201
 10
93.344532
 20
-42.885487
 30
28.048602
 70
    64
  0
VERTEX
  8
I-CAP
  5
202
 10
85.626912
 20
-42.885487
 30
38.670995
 70
    64
  0
VERTEX
  8
I-CAP
  5
203
 10
101.062152
 20
-42.885487
 30
17.426209
 70
    64
  0
VERTEX
  8
I-CAP
  5
204
 10
90.439759
 20
-42.885487
 30
25.143829
 70
    64
  0
VERTEX
  8
I-CAP
  5
205
 10
79.817366
 20
-42.885487
 30
32.86145
 70
    64
  0
VERTEX
  8
I-CAP
  5
206
 10
101.062152
 20
-42.885487
 30
17.426209
 70
    64
  0
VERTEX
  8
I-CAP
  5
207
 10
88.57478
 20
-42.885487
 30
21.483602
 70
    64
  0
VERTEX
  8
I-CAP
  5
208
 10
76.087408
 20
-42.885487
 30
25.540995
 70
    64
  0
VERTEX
  8
I-CAP
  5
209
 10
101.062152
 20
-42.885487
 30
17.426209
 70
    64
  0
VERTEX
  8
I-CAP
  5
20A
 10
87.932152
 20
-42.885487
 30
17.426209
 70
    64
  0
VERTEX
  8
I-CAP
  5
20B
 10
74.802152
 20
-42.885487
 30
17.426209
 70
    64
  0
VERTEX
  8
I-CAP
  5
20C
 10
101.062152
 20
-42.885487
 30
17.426209
 70
    64
  0
VERTEX
  8
I-CAP
  5
20D
 10
88.57478
 20
-42.885487
 30
13.368816
 70
    64
  0
VERTEX
  8
I-CAP
  5
20E
 10
76.087408
 20
-42.885487
 30
9.311423
 70
    64
  0
VERTEX
  8
I-CAP
  5
20F
 10
101.062152
 20
-42.885487
 30
17.426209
 70
    64
  0
VERTEX
  8
I-CAP
  5
210
 10
90.439759
 20
-42.885487
 30
9.708589
 70
    64
  0
VERTEX
  8
I-CAP
  5
211
 10
79.817366
 20
-42.885487
 30
1.990968
 70
    64
  0
VERTEX
  8
I-CAP
  5
212
 10
101.062152
 20
-42.885487
 30
17.426209
 70
    64
  0
VERTEX
  8
I-CAP
  5
213
 10
93.344532
 20
-42.885487
 30
6.803816
 70
    64
  0
VERTEX
  8
I-CAP
  5
214
 10
85.626912
 20
-42.885487
 30
-3.818577
 70
    64
  0
VERTEX
  8
I-CAP
  5
215
 10
101.062152
 20
-42.885487
 30
17.426209
 70
    64
  0
VERTEX
  8
I-CAP
  5
216
 10
97.004759
 20
-42.885487
 30
4.938837
 70
    64
  0
VERTEX
  8
I-CAP
  5
217
 10
92.947366
 20
-42.885487
 30
-7.548535
 70
    64
  0
VERTEX
  8
I-CAP
  5
218
 10
101.062152
 20
-42.885487
 30
17.426209
 70
    64
  0
VERTEX
  8
I-CAP
  5
219
 10
101.062152
 20
-42.885487
 30
4.296209
 70
    64
  0
VERTEX
  8
I-CAP
  5
21A
 10
101.062152
 20
-42.885487
 30
-8.833791
 70
    64
  0
VERTEX
  8
I-CAP
  5
21B
 10
101.062152
 20
-42.885487
 30
17.426209
 70
    64
  0
VERTEX
  8
I-CAP
  5
21C
 10
105.119546
 20
-42.885487
 30
4.938837
 70
    64
  0
VERTEX
  8
I-CAP
  5
21D
 10
109.176939
 20
-42.885487
 30
-7.548535
 70
    64
  0
VERTEX
  8
I-CAP
  5
21E
 10
101.062152
 20
-42.885487
 30
17.426209
 70
    64
  0
VERTEX
  8
I-CAP
  5
21F
 10
108.779773
 20
-42.885487
 30
6.803816
 70
    64
  0
VERTEX
  8
I-CAP
  5
220
 10
116.497393
 20
-42.885487
 30
-3.818577
 70
    64
  0
VERTEX
  8
I-CAP
  5
221
 10
101.062152
 20
-42.885487
 30
17.426209
 70
    64
  0
VERTEX
  8
I-CAP
  5
222
 10
111.684546
 20
-42.885487
 30
9.708589
 70
    64
  0
VERTEX
  8
I-CAP
  5
223
 10
122.306939
 20
-42.885487
 30
1.990968
 70
    64
  0
VERTEX
  8
I-CAP
  5
224
 10
101.062152
 20
-42.885487
 30
17.426209
 70
    64
  0
VERTEX
  8
I-CAP
  5
225
 10
113.549524
 20
-42.885487
 30
13.368816
 70
    64
  0
VERTEX
  8
I-CAP
  5
226
 10
126.036897
 20
-42.885487
 30
9.311423
 70
    64
  0
SEQEND
  8
I-CAP
  5
227
  0
LINE
  8
I-FLU
  5
229
 10
67.062152
 20
-42.885487
 30
17.426209
 11
67.062152
 21
37.114513
 31
17.426209
  0
ARC
  8
I-FLU
  5
22A
 10
101.062152
 20
17.426209
 30
-37.114513
 40
30.668937
 50
231.619811
 51
308.380189
210
0.0
220
-1.0
230
0.0
  0
POLYLINE
  8
I-FLU
  5
22B
 66
     1
 10
0.0
 20
0.0
 30
0.0
 70
    16
 71
     2
 72
     9
  0
VERTEX
  8
I-FLU
  5
22C
 10
82.020522
 20
37.114513
 30
-6.615422
 70
    64
  0
VERTEX
  8
I-FLU
  5
22D
 10
86.294249
 20
37.114513
 30
-9.453016
 70
    64
  0
VERTEX
  8
I-FLU
  5
22E
 10
90.981169
 20
37.114513
 30
-11.538554
 70
    64
  0
VERTEX
  8
I-FLU
  5
22F
 10
95.950146
 20
37.114513
 30
-12.813683
 70
    64
  0
VERTEX
  8
I-FLU
  5
230
 10
101.062152
 20
37.114513
 30
-13.242728
 70
    64
  0
VERTEX
  8
I-FLU
  5
231
 10
106.174159
 20
37.114513
 30
-12.813683
 70
    64
  0
VERTEX
  8
I-FLU
  5
232
 10
111.143136
 20
37.114513
 30
-11.538554
 70
    64
  0
VERTEX
  8
I-FLU
  5
233
 10
115.830056
 20
37.114513
 30
-9.453016
 70
    64
  0
VERTEX
  8
I-FLU
  5
234
 10
120.103783
 20
37.114513
 30
-6.615422
 70
    64
  0
VERTEX
  8
I-FLU
  5
235
 10
77.020522
 20
37.114513
 30
-6.615422
 70
    64
  0
VERTEX
  8
I-FLU
  5
236
 10
82.172764
 20
37.114513
 30
-10.843758
 70
    64
  0
VERTEX
  8
I-FLU
  5
237
 10
88.050916
 20
37.114513
 30
-13.985695
 70
    64
  0
VERTEX
  8
I-FLU
  5
238
 10
94.429081
 20
37.114513
 30
-15.92049
 70
    64
  0
VERTEX
  8
I-FLU
  5
239
 10
101.062152
 20
37.114513
 30
-16.573791
 70
    64
  0
VERTEX
  8
I-FLU
  5
23A
 10
107.695223
 20
37.114513
 30
-15.92049
 70
    64
  0
VERTEX
  8
I-FLU
  5
23B
 10
114.073389
 20
37.114513
 30
-13.985695
 70
    64
  0
VERTEX
  8
I-FLU
  5
23C
 10
119.95154
 20
37.114513
 30
-10.843758
 70
    64
  0
VERTEX
  8
I-FLU
  5
23D
 10
125.103783
 20
37.114513
 30
-6.615422
 70
    64
  0
SEQEND
  8
I-FLU
  5
23E
  0
POLYLINE
  8
I-FLU
  5
23F
 66
     1
 10
0.0
 20
0.0
 30
0.0
 70
    16
 71
     2
 72
     9
  0
VERTEX
  8
I-FLU
  5
240
 10
77.020522
 20
37.114513
 30
-6.615422
 70
    64
  0
VERTEX
  8
I-FLU
  5
241
 10
82.172764
 20
37.114513
 30
-10.843758
 70
    64
  0
VERTEX
  8
I-FLU
  5
242
 10
88.050916
 20
37.114513
 30
-13.985695
 70
    64
  0
VERTEX
  8
I-FLU
  5
243
 10
94.429081
 20
37.114513
 30
-15.92049
 70
    64
  0
VERTEX
  8
I-FLU
  5
244
 10
101.062152
 20
37.114513
 30
-16.573791
 70
    64
  0
VERTEX
  8
I-FLU
  5
245
 10
107.695223
 20
37.114513
 30
-15.92049
 70
    64
  0
VERTEX
  8
I-FLU
  5
246
 10
114.073389
 20
37.114513
 30
-13.985695
 70
    64
  0
VERTEX
  8
I-FLU
  5
247
 10
119.95154
 20
37.114513
 30
-10.843758
 70
    64
  0
VERTEX
  8
I-FLU
  5
248
 10
125.103783
 20
37.114513
 30
-6.615422
 70
    64
  0
VERTEX
  8
I-FLU
  5
249
 10
77.020522
 20
-42.885487
 30
-6.615422
 70
    64
  0
VERTEX
  8
I-FLU
  5
24A
 10
82.172764
 20
-42.885487
 30
-10.843758
 70
    64
  0
VERTEX
  8
I-FLU
  5
24B
 10
88.050916
 20
-42.885487
 30
-13.985695
 70
    64
  0
VERTEX
  8
I-FLU
  5
24C
 10
94.429081
 20
-42.885487
 30
-15.92049
 70
    64
  0
VERTEX
  8
I-FLU
  5
24D
 10
101.062152
 20
-42.885487
 30
-16.573791
 70
    64
  0
VERTEX
  8
I-FLU
  5
24E
 10
107.695223
 20
-42.885487
 30
-15.92049
 70
    64
  0
VERTEX
  8
I-FLU
  5
24F
 10
114.073389
 20
-42.885487
 30
-13.985695
 70
    64
  0
VERTEX
  8
I-FLU
  5
250
 10
119.95154
 20
-42.885487
 30
-10.843758
 70
    64
  0
VERTEX
  8
I-FLU
  5
251
 10
125.103783
 20
-42.885487
 30
-6.615422
 70
    64
  0
SEQEND
  8
I-FLU
  5
252
  0
POLYLINE
  8
I-FLU
  5
253
 66
     1
 10
0.0
 20
0.0
 30
0.0
 70
    16
 71
     2
 72
     9
  0
VERTEX
  8
I-FLU
  5
254
 10
77.020522
 20
1477.114513
 30
-6.615422
 70
    64
  0
VERTEX
  8
I-FLU
  5
255
 10
82.172764
 20
1477.114513
 30
-10.843758
 70
    64
  0
VERTEX
  8
I-FLU
  5
256
 10
88.050916
 20
1477.114513
 30
-13.985695
 70
    64
  0
VERTEX
  8
I-FLU
  5
257
 10
94.429081
 20
1477.114513
 30
-15.92049
 70
    64
  0
VERTEX
  8
I-FLU
  5
258
 10
101.062152
 20
1477.114513
 30
-16.573791
 70
    64
  0
VERTEX
  8
I-FLU
  5
259
 10
107.695223
 20
1477.114513
 30
-15.92049
 70
    64
  0
VERTEX
  8
I-FLU
  5
25A
 10
114.073389
 20
1477.114513
 30
-13.985695
 70
    64
  0
VERTEX
  8
I-FLU
  5
25B
 10
119.95154
 20
1477.114513
 30
-10.843758
 70
    64
  0
VERTEX
  8
I-FLU
  5
25C
 10
125.103783
 20
1477.114513
 30
-6.615422
 70
    64
  0
VERTEX
  8
I-FLU
  5
25D
 10
77.020522
 20
1557.114513
 30
-6.615422
 70
    64
  0
VERTEX
  8
I-FLU
  5
25E
 10
82.172764
 20
1557.114513
 30
-10.843758
 70
    64
  0
VERTEX
  8
I-FLU
  5
25F
 10
88.050916
 20
1557.114513
 30
-13.985695
 70
    64
  0
VERTEX
  8
I-FLU
  5
260
 10
94.429081
 20
1557.114513
 30
-15.92049
 70
    64
  0
VERTEX
  8
I-FLU
  5
261
 10
101.062152
 20
1557.114513
 30
-16.573791
 70
    64
  0
VERTEX
  8
I-FLU
  5
262
 10
107.695223
 20
1557.114513
 30
-15.92049
 70
    64
  0
VERTEX
  8
I-FLU
  5
263
 10
114.073389
 20
1557.114513
 30
-13.985695
 70
    64
  0
VERTEX
  8
I-FLU
  5
264
 10
119.95154
 20
1557.114513
 30
-10.843758
 70
    64
  0
VERTEX
  8
I-FLU
  5
265
 10
125.103783
 20
1557.114513
 30
-6.615422
 70
    64
  0
SEQEND
  8
I-FLU
  5
266
  0
POLYLINE
  8
I-FLU
  5
267
 66
     1
 10
0.0
 20
0.0
 30
0.0
 70
    16
 71
     2
 72
     9
  0
VERTEX
  8
I-FLU
  5
268
 10
82.020522
 20
1477.114513
 30
-6.615422
 70
    64
  0
VERTEX
  8
I-FLU
  5
269
 10
86.294249
 20
1477.114513
 30
-9.453016
 70
    64
  0
VERTEX
  8
I-FLU
  5
26A
 10
90.981169
 20
1477.114513
 30
-11.538554
 70
    64
  0
VERTEX
  8
I-FLU
  5
26B
 10
95.950146
 20
1477.114513
 30
-12.813683
 70
    64
  0
VERTEX
  8
I-FLU
  5
26C
 10
101.062152
 20
1477.114513
 30
-13.242728
 70
    64
  0
VERTEX
  8
I-FLU
  5
26D
 10
106.174159
 20
1477.114513
 30
-12.813683
 70
    64
  0
VERTEX
  8
I-FLU
  5
26E
 10
111.143136
 20
1477.114513
 30
-11.538554
 70
    64
  0
VERTEX
  8
I-FLU
  5
26F
 10
115.830056
 20
1477.114513
 30
-9.453016
 70
    64
  0
VERTEX
  8
I-FLU
  5
270
 10
120.103783
 20
1477.114513
 30
-6.615422
 70
    64
  0
VERTEX
  8
I-FLU
  5
271
 10
77.020522
 20
1477.114513
 30
-6.615422
 70
    64
  0
VERTEX
  8
I-FLU
  5
272
 10
82.172764
 20
1477.114513
 30
-10.843758
 70
    64
  0
VERTEX
  8
I-FLU
  5
273
 10
88.050916
 20
1477.114513
 30
-13.985695
 70
    64
  0
VERTEX
  8
I-FLU
  5
274
 10
94.429081
 20
1477.114513
 30
-15.92049
 70
    64
  0
VERTEX
  8
I-FLU
  5
275
 10
101.062152
 20
1477.114513
 30
-16.573791
 70
    64
  0
VERTEX
  8
I-FLU
  5
276
 10
107.695223
 20
1477.114513
 30
-15.92049
 70
    64
  0
VERTEX
  8
I-FLU
  5
277
 10
114.073389
 20
1477.114513
 30
-13.985695
 70
    64
  0
VERTEX
  8
I-FLU
  5
278
 10
119.95154
 20
1477.114513
 30
-10.843758
 70
    64
  0
VERTEX
  8
I-FLU
  5
279
 10
125.103783
 20
1477.114513
 30
-6.615422
 70
    64
  0
SEQEND
  8
I-FLU
  5
27A
  0
POLYLINE
  8
I-FLU
  5
27B
 66
     1
 10
0.0
 20
0.0
 30
0.0
 70
    16
 71
     2
 72
     9
  0
VERTEX
  8
I-FLU
  5
27C
 10
82.020522
 20
52.114513
 30
-6.615422
 70
    64
  0
VERTEX
  8
I-FLU
  5
27D
 10
86.294249
 20
52.114513
 30
-9.453016
 70
    64
  0
VERTEX
  8
I-FLU
  5
27E
 10
90.981169
 20
52.114513
 30
-11.538554
 70
    64
  0
VERTEX
  8
I-FLU
  5
27F
 10
95.950146
 20
52.114513
 30
-12.813683
 70
    64
  0
VERTEX
  8
I-FLU
  5
280
 10
101.062152
 20
52.114513
 30
-13.242728
 70
    64
  0
VERTEX
  8
I-FLU
  5
281
 10
106.174159
 20
52.114513
 30
-12.813683
 70
    64
  0
VERTEX
  8
I-FLU
  5
282
 10
111.143136
 20
52.114513
 30
-11.538554
 70
    64
  0
VERTEX
  8
I-FLU
  5
283
 10
115.830056
 20
52.114513
 30
-9.453016
 70
    64
  0
VERTEX
  8
I-FLU
  5
284
 10
120.103783
 20
52.114513
 30
-6.615422
 70
    64
  0
VERTEX
  8
I-FLU
  5
285
 10
77.020522
 20
52.114513
 30
-6.615422
 70
    64
  0
VERTEX
  8
I-FLU
  5
286
 10
82.172764
 20
52.114513
 30
-10.843758
 70
    64
  0
VERTEX
  8
I-FLU
  5
287
 10
88.050916
 20
52.114513
 30
-13.985695
 70
    64
  0
VERTEX
  8
I-FLU
  5
288
 10
94.429081
 20
52.114513
 30
-15.92049
 70
    64
  0
VERTEX
  8
I-FLU
  5
289
 10
101.062152
 20
52.114513
 30
-16.573791
 70
    64
  0
VERTEX
  8
I-FLU
  5
28A
 10
107.695223
 20
52.114513
 30
-15.92049
 70
    64
  0
VERTEX
  8
I-FLU
  5
28B
 10
114.073389
 20
52.114513
 30
-13.985695
 70
    64
  0
VERTEX
  8
I-FLU
  5
28C
 10
119.95154
 20
52.114513
 30
-10.843758
 70
    64
  0
VERTEX
  8
I-FLU
  5
28D
 10
125.103783
 20
52.114513
 30
-6.615422
 70
    64
  0
SEQEND
  8
I-FLU
  5
28E
  0
POLYLINE
  8
I-FLU
  5
28F
 66
     1
 10
0.0
 20
0.0
 30
0.0
 70
    16
 71
     2
 72
     9
  0
VERTEX
  8
I-FLU
  5
290
 10
82.020522
 20
67.114513
 30
-6.615422
 70
    64
  0
VERTEX
  8
I-FLU
  5
291
 10
86.294249
 20
67.114513
 30
-9.453016
 70
    64
  0
VERTEX
  8
I-FLU
  5
292
 10
90.981169
 20
67.114513
 30
-11.538554
 70
    64
  0
VERTEX
  8
I-FLU
  5
293
 10
95.950146
 20
67.114513
 30
-12.813683
 70
    64
  0
VERTEX
  8
I-FLU
  5
294
 10
101.062152
 20
67.114513
 30
-13.242728
 70
    64
  0
VERTEX
  8
I-FLU
  5
295
 10
106.174159
 20
67.114513
 30
-12.813683
 70
    64
  0
VERTEX
  8
I-FLU
  5
296
 10
111.143136
 20
67.114513
 30
-11.538554
 70
    64
  0
VERTEX
  8
I-FLU
  5
297
 10
115.830056
 20
67.114513
 30
-9.453016
 70
    64
  0
VERTEX
  8
I-FLU
  5
298
 10
120.103783
 20
67.114513
 30
-6.615422
 70
    64
  0
VERTEX
  8
I-FLU
  5
299
 10
77.020522
 20
67.114513
 30
-6.615422
 70
    64
  0
VERTEX
  8
I-FLU
  5
29A
 10
82.172764
 20
67.114513
 30
-10.843758
 70
    64
  0
VERTEX
  8
I-FLU
  5
29B
 10
88.050916
 20
67.114513
 30
-13.985695
 70
    64
  0
VERTEX
  8
I-FLU
  5
29C
 10
94.429081
 20
67.114513
 30
-15.92049
 70
    64
  0
VERTEX
  8
I-FLU
  5
29D
 10
101.062152
 20
67.114513
 30
-16.573791
 70
    64
  0
VERTEX
  8
I-FLU
  5
29E
 10
107.695223
 20
67.114513
 30
-15.92049
 70
    64
  0
VERTEX
  8
I-FLU
  5
29F
 10
114.073389
 20
67.114513
 30
-13.985695
 70
    64
  0
VERTEX
  8
I-FLU
  5
2A0
 10
119.95154
 20
67.114513
 30
-10.843758
 70
    64
  0
VERTEX
  8
I-FLU
  5
2A1
 10
125.103783
 20
67.114513
 30
-6.615422
 70
    64
  0
SEQEND
  8
I-FLU
  5
2A2
  0
POLYLINE
  8
I-FLU
  5
2A3
 66
     1
 10
0.0
 20
0.0
 30
0.0
 70
    16
 71
     2
 72
     9
  0
VERTEX
  8
I-FLU
  5
2A4
 10
82.020522
 20
82.114513
 30
-6.615422
 70
    64
  0
VERTEX
  8
I-FLU
  5
2A5
 10
86.294249
 20
82.114513
 30
-9.453016
 70
    64
  0
VERTEX
  8
I-FLU
  5
2A6
 10
90.981169
 20
82.114513
 30
-11.538554
 70
    64
  0
VERTEX
  8
I-FLU
  5
2A7
 10
95.950146
 20
82.114513
 30
-12.813683
 70
    64
  0
VERTEX
  8
I-FLU
  5
2A8
 10
101.062152
 20
82.114513
 30
-13.242728
 70
    64
  0
VERTEX
  8
I-FLU
  5
2A9
 10
106.174159
 20
82.114513
 30
-12.813683
 70
    64
  0
VERTEX
  8
I-FLU
  5
2AA
 10
111.143136
 20
82.114513
 30
-11.538554
 70
    64
  0
VERTEX
  8
I-FLU
  5
2AB
 10
115.830056
 20
82.114513
 30
-9.453016
 70
    64
  0
VERTEX
  8
I-FLU
  5
2AC
 10
120.103783
 20
82.114513
 30
-6.615422
 70
    64
  0
VERTEX
  8
I-FLU
  5
2AD
 10
77.020522
 20
82.114513
 30
-6.615422
 70
    64
  0
VERTEX
  8
I-FLU
  5
2AE
 10
82.172764
 20
82.114513
 30
-10.843758
 70
    64
  0
VERTEX
  8
I-FLU
  5
2AF
 10
88.050916
 20
82.114513
 30
-13.985695
 70
    64
  0
VERTEX
  8
I-FLU
  5
2B0
 10
94.429081
 20
82.114513
 30
-15.92049
 70
    64
  0
VERTEX
  8
I-FLU
  5
2B1
 10
101.062152
 20
82.114513
 30
-16.573791
 70
    64
  0
VERTEX
  8
I-FLU
  5
2B2
 10
107.695223
 20
82.114513
 30
-15.92049
 70
    64
  0
VERTEX
  8
I-FLU
  5
2B3
 10
114.073389
 20
82.114513
 30
-13.985695
 70
    64
  0
VERTEX
  8
I-FLU
  5
2B4
 10
119.95154
 20
82.114513
 30
-10.843758
 70
    64
  0
VERTEX
  8
I-FLU
  5
2B5
 10
125.103783
 20
82.114513
 30
-6.615422
 70
    64
  0
SEQEND
  8
I-FLU
  5
2B6
  0
POLYLINE
  8
I-FLU
  5
2B7
 66
     1
 10
0.0
 20
0.0
 30
0.0
 70
    16
 71
     2
 72
     9
  0
VERTEX
  8
I-FLU
  5
2B8
 10
82.020522
 20
97.114513
 30
-6.615422
 70
    64
  0
VERTEX
  8
I-FLU
  5
2B9
 10
86.294249
 20
97.114513
 30
-9.453016
 70
    64
  0
VERTEX
  8
I-FLU
  5
2BA
 10
90.981169
 20
97.114513
 30
-11.538554
 70
    64
  0
VERTEX
  8
I-FLU
  5
2BB
 10
95.950146
 20
97.114513
 30
-12.813683
 70
    64
  0
VERTEX
  8
I-FLU
  5
2BC
 10
101.062152
 20
97.114513
 30
-13.242728
 70
    64
  0
VERTEX
  8
I-FLU
  5
2BD
 10
106.174159
 20
97.114513
 30
-12.813683
 70
    64
  0
VERTEX
  8
I-FLU
  5
2BE
 10
111.143136
 20
97.114513
 30
-11.538554
 70
    64
  0
VERTEX
  8
I-FLU
  5
2BF
 10
115.830056
 20
97.114513
 30
-9.453016
 70
    64
  0
VERTEX
  8
I-FLU
  5
2C0
 10
120.103783
 20
97.114513
 30
-6.615422
 70
    64
  0
VERTEX
  8
I-FLU
  5
2C1
 10
77.020522
 20
97.114513
 30
-6.615422
 70
    64
  0
VERTEX
  8
I-FLU
  5
2C2
 10
82.172764
 20
97.114513
 30
-10.843758
 70
    64
  0
VERTEX
  8
I-FLU
  5
2C3
 10
88.050916
 20
97.114513
 30
-13.985695
 70
    64
  0
VERTEX
  8
I-FLU
  5
2C4
 10
94.429081
 20
97.114513
 30
-15.92049
 70
    64
  0
VERTEX
  8
I-FLU
  5
2C5
 10
101.062152
 20
97.114513
 30
-16.573791
 70
    64
  0
VERTEX
  8
I-FLU
  5
2C6
 10
107.695223
 20
97.114513
 30
-15.92049
 70
    64
  0
VERTEX
  8
I-FLU
  5
2C7
 10
114.073389
 20
97.114513
 30
-13.985695
 70
    64
  0
VERTEX
  8
I-FLU
  5
2C8
 10
119.95154
 20
97.114513
 30
-10.843758
 70
    64
  0
VERTEX
  8
I-FLU
  5
2C9
 10
125.103783
 20
97.114513
 30
-6.615422
 70
    64
  0
SEQEND
  8
I-FLU
  5
2CA
  0
POLYLINE
  8
I-FLU
  5
2CB
 66
     1
 10
0.0
 20
0.0
 30
0.0
 70
    16
 71
     2
 72
     9
  0
VERTEX
  8
I-FLU
  5
2CC
 10
82.020522
 20
112.114513
 30
-6.615422
 70
    64
  0
VERTEX
  8
I-FLU
  5
2CD
 10
86.294249
 20
112.114513
 30
-9.453016
 70
    64
  0
VERTEX
  8
I-FLU
  5
2CE
 10
90.981169
 20
112.114513
 30
-11.538554
 70
    64
  0
VERTEX
  8
I-FLU
  5
2CF
 10
95.950146
 20
112.114513
 30
-12.813683
 70
    64
  0
VERTEX
  8
I-FLU
  5
2D0
 10
101.062152
 20
112.114513
 30
-13.242728
 70
    64
  0
VERTEX
  8
I-FLU
  5
2D1
 10
106.174159
 20
112.114513
 30
-12.813683
 70
    64
  0
VERTEX
  8
I-FLU
  5
2D2
 10
111.143136
 20
112.114513
 30
-11.538554
 70
    64
  0
VERTEX
  8
I-FLU
  5
2D3
 10
115.830056
 20
112.114513
 30
-9.453016
 70
    64
  0
VERTEX
  8
I-FLU
  5
2D4
 10
120.103783
 20
112.114513
 30
-6.615422
 70
    64
  0
VERTEX
  8
I-FLU
  5
2D5
 10
77.020522
 20
112.114513
 30
-6.615422
 70
    64
  0
VERTEX
  8
I-FLU
  5
2D6
 10
82.172764
 20
112.114513
 30
-10.843758
 70
    64
  0
VERTEX
  8
I-FLU
  5
2D7
 10
88.050916
 20
112.114513
 30
-13.985695
 70
    64
  0
VERTEX
  8
I-FLU
  5
2D8
 10
94.429081
 20
112.114513
 30
-15.92049
 70
    64
  0
VERTEX
  8
I-FLU
  5
2D9
 10
101.062152
 20
112.114513
 30
-16.573791
 70
    64
  0
VERTEX
  8
I-FLU
  5
2DA
 10
107.695223
 20
112.114513
 30
-15.92049
 70
    64
  0
VERTEX
  8
I-FLU
  5
2DB
 10
114.073389
 20
112.114513
 30
-13.985695
 70
    64
  0
VERTEX
  8
I-FLU
  5
2DC
 10
119.95154
 20
112.114513
 30
-10.843758
 70
    64
  0
VERTEX
  8
I-FLU
  5
2DD
 10
125.103783
 20
112.114513
 30
-6.615422
 70
    64
  0
SEQEND
  8
I-FLU
  5
2DE
  0
POLYLINE
  8
I-FLU
  5
2DF
 66
     1
 10
0.0
 20
0.0
 30
0.0
 70
    16
 71
     2
 72
     9
  0
VERTEX
  8
I-FLU
  5
2E0
 10
82.020522
 20
127.114513
 30
-6.615422
 70
    64
  0
VERTEX
  8
I-FLU
  5
2E1
 10
86.294249
 20
127.114513
 30
-9.453016
 70
    64
  0
VERTEX
  8
I-FLU
  5
2E2
 10
90.981169
 20
127.114513
 30
-11.538554
 70
    64
  0
VERTEX
  8
I-FLU
  5
2E3
 10
95.950146
 20
127.114513
 30
-12.813683
 70
    64
  0
VERTEX
  8
I-FLU
  5
2E4
 10
101.062152
 20
127.114513
 30
-13.242728
 70
    64
  0
VERTEX
  8
I-FLU
  5
2E5
 10
106.174159
 20
127.114513
 30
-12.813683
 70
    64
  0
VERTEX
  8
I-FLU
  5
2E6
 10
111.143136
 20
127.114513
 30
-11.538554
 70
    64
  0
VERTEX
  8
I-FLU
  5
2E7
 10
115.830056
 20
127.114513
 30
-9.453016
 70
    64
  0
VERTEX
  8
I-FLU
  5
2E8
 10
120.103783
 20
127.114513
 30
-6.615422
 70
    64
  0
VERTEX
  8
I-FLU
  5
2E9
 10
77.020522
 20
127.114513
 30
-6.615422
 70
    64
  0
VERTEX
  8
I-FLU
  5
2EA
 10
82.172764
 20
127.114513
 30
-10.843758
 70
    64
  0
VERTEX
  8
I-FLU
  5
2EB
 10
88.050916
 20
127.114513
 30
-13.985695
 70
    64
  0
VERTEX
  8
I-FLU
  5
2EC
 10
94.429081
 20
127.114513
 30
-15.92049
 70
    64
  0
VERTEX
  8
I-FLU
  5
2ED
 10
101.062152
 20
127.114513
 30
-16.573791
 70
    64
  0
VERTEX
  8
I-FLU
  5
2EE
 10
107.695223
 20
127.114513
 30
-15.92049
 70
    64
  0
VERTEX
  8
I-FLU
  5
2EF
 10
114.073389
 20
127.114513
 30
-13.985695
 70
    64
  0
VERTEX
  8
I-FLU
  5
2F0
 10
119.95154
 20
127.114513
 30
-10.843758
 70
    64
  0
VERTEX
  8
I-FLU
  5
2F1
 10
125.103783
 20
127.114513
 30
-6.615422
 70
    64
  0
SEQEND
  8
I-FLU
  5
2F2
  0
POLYLINE
  8
I-FLU
  5
2F3
 66
     1
 10
0.0
 20
0.0
 30
0.0
 70
    16
 71
     2
 72
     9
  0
VERTEX
  8
I-FLU
  5
2F4
 10
82.020522
 20
142.114513
 30
-6.615422
 70
    64
  0
VERTEX
  8
I-FLU
  5
2F5
 10
86.294249
 20
142.114513
 30
-9.453016
 70
    64
  0
VERTEX
  8
I-FLU
  5
2F6
 10
90.981169
 20
142.114513
 30
-11.538554
 70
    64
  0
VERTEX
  8
I-FLU
  5
2F7
 10
95.950146
 20
142.114513
 30
-12.813683
 70
    64
  0
VERTEX
  8
I-FLU
  5
2F8
 10
101.062152
 20
142.114513
 30
-13.242728
 70
    64
  0
VERTEX
  8
I-FLU
  5
2F9
 10
106.174159
 20
142.114513
 30
-12.813683
 70
    64
  0
VERTEX
  8
I-FLU
  5
2FA
 10
111.143136
 20
142.114513
 30
-11.538554
 70
    64
  0
VERTEX
  8
I-FLU
  5
2FB
 10
115.830056
 20
142.114513
 30
-9.453016
 70
    64
  0
VERTEX
  8
I-FLU
  5
2FC
 10
120.103783
 20
142.114513
 30
-6.615422
 70
    64
  0
VERTEX
  8
I-FLU
  5
2FD
 10
77.020522
 20
142.114513
 30
-6.615422
 70
    64
  0
VERTEX
  8
I-FLU
  5
2FE
 10
82.172764
 20
142.114513
 30
-10.843758
 70
    64
  0
VERTEX
  8
I-FLU
  5
2FF
 10
88.050916
 20
142.114513
 30
-13.985695
 70
    64
  0
VERTEX
  8
I-FLU
  5
300
 10
94.429081
 20
142.114513
 30
-15.92049
 70
    64
  0
VERTEX
  8
I-FLU
  5
301
 10
101.062152
 20
142.114513
 30
-16.573791
 70
    64
  0
VERTEX
  8
I-FLU
  5
302
 10
107.695223
 20
142.114513
 30
-15.92049
 70
    64
  0
VERTEX
  8
I-FLU
  5
303
 10
114.073389
 20
142.114513
 30
-13.985695
 70
    64
  0
VERTEX
  8
I-FLU
  5
304
 10
119.95154
 20
142.114513
 30
-10.843758
 70
    64
  0
VERTEX
  8
I-FLU
  5
305
 10
125.103783
 20
142.114513
 30
-6.615422
 70
    64
  0
SEQEND
  8
I-FLU
  5
306
  0
POLYLINE
  8
I-FLU
  5
307
 66
     1
 10
0.0
 20
0.0
 30
0.0
 70
    16
 71
     2
 72
     9
  0
VERTEX
  8
I-FLU
  5
308
 10
82.020522
 20
157.114513
 30
-6.615422
 70
    64
  0
VERTEX
  8
I-FLU
  5
309
 10
86.294249
 20
157.114513
 30
-9.453016
 70
    64
  0
VERTEX
  8
I-FLU
  5
30A
 10
90.981169
 20
157.114513
 30
-11.538554
 70
    64
  0
VERTEX
  8
I-FLU
  5
30B
 10
95.950146
 20
157.114513
 30
-12.813683
 70
    64
  0
VERTEX
  8
I-FLU
  5
30C
 10
101.062152
 20
157.114513
 30
-13.242728
 70
    64
  0
VERTEX
  8
I-FLU
  5
30D
 10
106.174159
 20
157.114513
 30
-12.813683
 70
    64
  0
VERTEX
  8
I-FLU
  5
30E
 10
111.143136
 20
157.114513
 30
-11.538554
 70
    64
  0
VERTEX
  8
I-FLU
  5
30F
 10
115.830056
 20
157.114513
 30
-9.453016
 70
    64
  0
VERTEX
  8
I-FLU
  5
310
 10
120.103783
 20
157.114513
 30
-6.615422
 70
    64
  0
VERTEX
  8
I-FLU
  5
311
 10
77.020522
 20
157.114513
 30
-6.615422
 70
    64
  0
VERTEX
  8
I-FLU
  5
312
 10
82.172764
 20
157.114513
 30
-10.843758
 70
    64
  0
VERTEX
  8
I-FLU
  5
313
 10
88.050916
 20
157.114513
 30
-13.985695
 70
    64
  0
VERTEX
  8
I-FLU
  5
314
 10
94.429081
 20
157.114513
 30
-15.92049
 70
    64
  0
VERTEX
  8
I-FLU
  5
315
 10
101.062152
 20
157.114513
 30
-16.573791
 70
    64
  0
VERTEX
  8
I-FLU
  5
316
 10
107.695223
 20
157.114513
 30
-15.92049
 70
    64
  0
VERTEX
  8
I-FLU
  5
317
 10
114.073389
 20
157.114513
 30
-13.985695
 70
    64
  0
VERTEX
  8
I-FLU
  5
318
 10
119.95154
 20
157.114513
 30
-10.843758
 70
    64
  0
VERTEX
  8
I-FLU
  5
319
 10
125.103783
 20
157.114513
 30
-6.615422
 70
    64
  0
SEQEND
  8
I-FLU
  5
31A
  0
POLYLINE
  8
I-FLU
  5
31B
 66
     1
 10
0.0
 20
0.0
 30
0.0
 70
    16
 71
     2
 72
     9
  0
VERTEX
  8
I-FLU
  5
31C
 10
82.020522
 20
172.114513
 30
-6.615422
 70
    64
  0
VERTEX
  8
I-FLU
  5
31D
 10
86.294249
 20
172.114513
 30
-9.453016
 70
    64
  0
VERTEX
  8
I-FLU
  5
31E
 10
90.981169
 20
172.114513
 30
-11.538554
 70
    64
  0
VERTEX
  8
I-FLU
  5
31F
 10
95.950146
 20
172.114513
 30
-12.813683
 70
    64
  0
VERTEX
  8
I-FLU
  5
320
 10
101.062152
 20
172.114513
 30
-13.242728
 70
    64
  0
VERTEX
  8
I-FLU
  5
321
 10
106.174159
 20
172.114513
 30
-12.813683
 70
    64
  0
VERTEX
  8
I-FLU
  5
322
 10
111.143136
 20
172.114513
 30
-11.538554
 70
    64
  0
VERTEX
  8
I-FLU
  5
323
 10
115.830056
 20
172.114513
 30
-9.453016
 70
    64
  0
VERTEX
  8
I-FLU
  5
324
 10
120.103783
 20
172.114513
 30
-6.615422
 70
    64
  0
VERTEX
  8
I-FLU
  5
325
 10
77.020522
 20
172.114513
 30
-6.615422
 70
    64
  0
VERTEX
  8
I-FLU
  5
326
 10
82.172764
 20
172.114513
 30
-10.843758
 70
    64
  0
VERTEX
  8
I-FLU
  5
327
 10
88.050916
 20
172.114513
 30
-13.985695
 70
    64
  0
VERTEX
  8
I-FLU
  5
328
 10
94.429081
 20
172.114513
 30
-15.92049
 70
    64
  0
VERTEX
  8
I-FLU
  5
329
 10
101.062152
 20
172.114513
 30
-16.573791
 70
    64
  0
VERTEX
  8
I-FLU
  5
32A
 10
107.695223
 20
172.114513
 30
-15.92049
 70
    64
  0
VERTEX
  8
I-FLU
  5
32B
 10
114.073389
 20
172.114513
 30
-13.985695
 70
    64
  0
VERTEX
  8
I-FLU
  5
32C
 10
119.95154
 20
172.114513
 30
-10.843758
 70
    64
  0
VERTEX
  8
I-FLU
  5
32D
 10
125.103783
 20
172.114513
 30
-6.615422
 70
    64
  0
SEQEND
  8
I-FLU
  5
32E
  0
POLYLINE
  8
I-FLU
  5
32F
 66
     1
 10
0.0
 20
0.0
 30
0.0
 70
    16
 71
     2
 72
     9
  0
VERTEX
  8
I-FLU
  5
330
 10
82.020522
 20
187.114513
 30
-6.615422
 70
    64
  0
VERTEX
  8
I-FLU
  5
331
 10
86.294249
 20
187.114513
 30
-9.453016
 70
    64
  0
VERTEX
  8
I-FLU
  5
332
 10
90.981169
 20
187.114513
 30
-11.538554
 70
    64
  0
VERTEX
  8
I-FLU
  5
333
 10
95.950146
 20
187.114513
 30
-12.813683
 70
    64
  0
VERTEX
  8
I-FLU
  5
334
 10
101.062152
 20
187.114513
 30
-13.242728
 70
    64
  0
VERTEX
  8
I-FLU
  5
335
 10
106.174159
 20
187.114513
 30
-12.813683
 70
    64
  0
VERTEX
  8
I-FLU
  5
336
 10
111.143136
 20
187.114513
 30
-11.538554
 70
    64
  0
VERTEX
  8
I-FLU
  5
337
 10
115.830056
 20
187.114513
 30
-9.453016
 70
    64
  0
VERTEX
  8
I-FLU
  5
338
 10
120.103783
 20
187.114513
 30
-6.615422
 70
    64
  0
VERTEX
  8
I-FLU
  5
339
 10
77.020522
 20
187.114513
 30
-6.615422
 70
    64
  0
VERTEX
  8
I-FLU
  5
33A
 10
82.172764
 20
187.114513
 30
-10.843758
 70
    64
  0
VERTEX
  8
I-FLU
  5
33B
 10
88.050916
 20
187.114513
 30
-13.985695
 70
    64
  0
VERTEX
  8
I-FLU
  5
33C
 10
94.429081
 20
187.114513
 30
-15.92049
 70
    64
  0
VERTEX
  8
I-FLU
  5
33D
 10
101.062152
 20
187.114513
 30
-16.573791
 70
    64
  0
VERTEX
  8
I-FLU
  5
33E
 10
107.695223
 20
187.114513
 30
-15.92049
 70
    64
  0
VERTEX
  8
I-FLU
  5
33F
 10
114.073389
 20
187.114513
 30
-13.985695
 70
    64
  0
VERTEX
  8
I-FLU
  5
340
 10
119.95154
 20
187.114513
 30
-10.843758
 70
    64
  0
VERTEX
  8
I-FLU
  5
341
 10
125.103783
 20
187.114513
 30
-6.615422
 70
    64
  0
SEQEND
  8
I-FLU
  5
342
  0
POLYLINE
  8
I-FLU
  5
343
 66
     1
 10
0.0
 20
0.0
 30
0.0
 70
    16
 71
     2
 72
     9
  0
VERTEX
  8
I-FLU
  5
344
 10
82.020522
 20
202.114513
 30
-6.615422
 70
    64
  0
VERTEX
  8
I-FLU
  5
345
 10
86.294249
 20
202.114513
 30
-9.453016
 70
    64
  0
VERTEX
  8
I-FLU
  5
346
 10
90.981169
 20
202.114513
 30
-11.538554
 70
    64
  0
VERTEX
  8
I-FLU
  5
347
 10
95.950146
 20
202.114513
 30
-12.813683
 70
    64
  0
VERTEX
  8
I-FLU
  5
348
 10
101.062152
 20
202.114513
 30
-13.242728
 70
    64
  0
VERTEX
  8
I-FLU
  5
349
 10
106.174159
 20
202.114513
 30
-12.813683
 70
    64
  0
VERTEX
  8
I-FLU
  5
34A
 10
111.143136
 20
202.114513
 30
-11.538554
 70
    64
  0
VERTEX
  8
I-FLU
  5
34B
 10
115.830056
 20
202.114513
 30
-9.453016
 70
    64
  0
VERTEX
  8
I-FLU
  5
34C
 10
120.103783
 20
202.114513
 30
-6.615422
 70
    64
  0
VERTEX
  8
I-FLU
  5
34D
 10
77.020522
 20
202.114513
 30
-6.615422
 70
    64
  0
VERTEX
  8
I-FLU
  5
34E
 10
82.172764
 20
202.114513
 30
-10.843758
 70
    64
  0
VERTEX
  8
I-FLU
  5
34F
 10
88.050916
 20
202.114513
 30
-13.985695
 70
    64
  0
VERTEX
  8
I-FLU
  5
350
 10
94.429081
 20
202.114513
 30
-15.92049
 70
    64
  0
VERTEX
  8
I-FLU
  5
351
 10
101.062152
 20
202.114513
 30
-16.573791
 70
    64
  0
VERTEX
  8
I-FLU
  5
352
 10
107.695223
 20
202.114513
 30
-15.92049
 70
    64
  0
VERTEX
  8
I-FLU
  5
353
 10
114.073389
 20
202.114513
 30
-13.985695
 70
    64
  0
VERTEX
  8
I-FLU
  5
354
 10
119.95154
 20
202.114513
 30
-10.843758
 70
    64
  0
VERTEX
  8
I-FLU
  5
355
 10
125.103783
 20
202.114513
 30
-6.615422
 70
    64
  0
SEQEND
  8
I-FLU
  5
356
  0
POLYLINE
  8
I-FLU
  5
357
 66
     1
 10
0.0
 20
0.0
 30
0.0
 70
    16
 71
     2
 72
     9
  0
VERTEX
  8
I-FLU
  5
358
 10
82.020522
 20
217.114513
 30
-6.615422
 70
    64
  0
VERTEX
  8
I-FLU
  5
359
 10
86.294249
 20
217.114513
 30
-9.453016
 70
    64
  0
VERTEX
  8
I-FLU
  5
35A
 10
90.981169
 20
217.114513
 30
-11.538554
 70
    64
  0
VERTEX
  8
I-FLU
  5
35B
 10
95.950146
 20
217.114513
 30
-12.813683
 70
    64
  0
VERTEX
  8
I-FLU
  5
35C
 10
101.062152
 20
217.114513
 30
-13.242728
 70
    64
  0
VERTEX
  8
I-FLU
  5
35D
 10
106.174159
 20
217.114513
 30
-12.813683
 70
    64
  0
VERTEX
  8
I-FLU
  5
35E
 10
111.143136
 20
217.114513
 30
-11.538554
 70
    64
  0
VERTEX
  8
I-FLU
  5
35F
 10
115.830056
 20
217.114513
 30
-9.453016
 70
    64
  0
VERTEX
  8
I-FLU
  5
360
 10
120.103783
 20
217.114513
 30
-6.615422
 70
    64
  0
VERTEX
  8
I-FLU
  5
361
 10
77.020522
 20
217.114513
 30
-6.615422
 70
    64
  0
VERTEX
  8
I-FLU
  5
362
 10
82.172764
 20
217.114513
 30
-10.843758
 70
    64
  0
VERTEX
  8
I-FLU
  5
363
 10
88.050916
 20
217.114513
 30
-13.985695
 70
    64
  0
VERTEX
  8
I-FLU
  5
364
 10
94.429081
 20
217.114513
 30
-15.92049
 70
    64
  0
VERTEX
  8
I-FLU
  5
365
 10
101.062152
 20
217.114513
 30
-16.573791
 70
    64
  0
VERTEX
  8
I-FLU
  5
366
 10
107.695223
 20
217.114513
 30
-15.92049
 70
    64
  0
VERTEX
  8
I-FLU
  5
367
 10
114.073389
 20
217.114513
 30
-13.985695
 70
    64
  0
VERTEX
  8
I-FLU
  5
368
 10
119.95154
 20
217.114513
 30
-10.843758
 70
    64
  0
VERTEX
  8
I-FLU
  5
369
 10
125.103783
 20
217.114513
 30
-6.615422
 70
    64
  0
SEQEND
  8
I-FLU
  5
36A
  0
POLYLINE
  8
I-FLU
  5
36B
 66
     1
 10
0.0
 20
0.0
 30
0.0
 70
    16
 71
     2
 72
     9
  0
VERTEX
  8
I-FLU
  5
36C
 10
82.020522
 20
232.114513
 30
-6.615422
 70
    64
  0
VERTEX
  8
I-FLU
  5
36D
 10
86.294249
 20
232.114513
 30
-9.453016
 70
    64
  0
VERTEX
  8
I-FLU
  5
36E
 10
90.981169
 20
232.114513
 30
-11.538554
 70
    64
  0
VERTEX
  8
I-FLU
  5
36F
 10
95.950146
 20
232.114513
 30
-12.813683
 70
    64
  0
VERTEX
  8
I-FLU
  5
370
 10
101.062152
 20
232.114513
 30
-13.242728
 70
    64
  0
VERTEX
  8
I-FLU
  5
371
 10
106.174159
 20
232.114513
 30
-12.813683
 70
    64
  0
VERTEX
  8
I-FLU
  5
372
 10
111.143136
 20
232.114513
 30
-11.538554
 70
    64
  0
VERTEX
  8
I-FLU
  5
373
 10
115.830056
 20
232.114513
 30
-9.453016
 70
    64
  0
VERTEX
  8
I-FLU
  5
374
 10
120.103783
 20
232.114513
 30
-6.615422
 70
    64
  0
VERTEX
  8
I-FLU
  5
375
 10
77.020522
 20
232.114513
 30
-6.615422
 70
    64
  0
VERTEX
  8
I-FLU
  5
376
 10
82.172764
 20
232.114513
 30
-10.843758
 70
    64
  0
VERTEX
  8
I-FLU
  5
377
 10
88.050916
 20
232.114513
 30
-13.985695
 70
    64
  0
VERTEX
  8
I-FLU
  5
378
 10
94.429081
 20
232.114513
 30
-15.92049
 70
    64
  0
VERTEX
  8
I-FLU
  5
379
 10
101.062152
 20
232.114513
 30
-16.573791
 70
    64
  0
VERTEX
  8
I-FLU
  5
37A
 10
107.695223
 20
232.114513
 30
-15.92049
 70
    64
  0
VERTEX
  8
I-FLU
  5
37B
 10
114.073389
 20
232.114513
 30
-13.985695
 70
    64
  0
VERTEX
  8
I-FLU
  5
37C
 10
119.95154
 20
232.114513
 30
-10.843758
 70
    64
  0
VERTEX
  8
I-FLU
  5
37D
 10
125.103783
 20
232.114513
 30
-6.615422
 70
    64
  0
SEQEND
  8
I-FLU
  5
37E
  0
POLYLINE
  8
I-FLU
  5
37F
 66
     1
 10
0.0
 20
0.0
 30
0.0
 70
    16
 71
     2
 72
     9
  0
VERTEX
  8
I-FLU
  5
380
 10
82.020522
 20
247.114513
 30
-6.615422
 70
    64
  0
VERTEX
  8
I-FLU
  5
381
 10
86.294249
 20
247.114513
 30
-9.453016
 70
    64
  0
VERTEX
  8
I-FLU
  5
382
 10
90.981169
 20
247.114513
 30
-11.538554
 70
    64
  0
VERTEX
  8
I-FLU
  5
383
 10
95.950146
 20
247.114513
 30
-12.813683
 70
    64
  0
VERTEX
  8
I-FLU
  5
384
 10
101.062152
 20
247.114513
 30
-13.242728
 70
    64
  0
VERTEX
  8
I-FLU
  5
385
 10
106.174159
 20
247.114513
 30
-12.813683
 70
    64
  0
VERTEX
  8
I-FLU
  5
386
 10
111.143136
 20
247.114513
 30
-11.538554
 70
    64
  0
VERTEX
  8
I-FLU
  5
387
 10
115.830056
 20
247.114513
 30
-9.453016
 70
    64
  0
VERTEX
  8
I-FLU
  5
388
 10
120.103783
 20
247.114513
 30
-6.615422
 70
    64
  0
VERTEX
  8
I-FLU
  5
389
 10
77.020522
 20
247.114513
 30
-6.615422
 70
    64
  0
VERTEX
  8
I-FLU
  5
38A
 10
82.172764
 20
247.114513
 30
-10.843758
 70
    64
  0
VERTEX
  8
I-FLU
  5
38B
 10
88.050916
 20
247.114513
 30
-13.985695
 70
    64
  0
VERTEX
  8
I-FLU
  5
38C
 10
94.429081
 20
247.114513
 30
-15.92049
 70
    64
  0
VERTEX
  8
I-FLU
  5
38D
 10
101.062152
 20
247.114513
 30
-16.573791
 70
    64
  0
VERTEX
  8
I-FLU
  5
38E
 10
107.695223
 20
247.114513
 30
-15.92049
 70
    64
  0
VERTEX
  8
I-FLU
  5
38F
 10
114.073389
 20
247.114513
 30
-13.985695
 70
    64
  0
VERTEX
  8
I-FLU
  5
390
 10
119.95154
 20
247.114513
 30
-10.843758
 70
    64
  0
VERTEX
  8
I-FLU
  5
391
 10
125.103783
 20
247.114513
 30
-6.615422
 70
    64
  0
SEQEND
  8
I-FLU
  5
392
  0
POLYLINE
  8
I-FLU
  5
393
 66
     1
 10
0.0
 20
0.0
 30
0.0
 70
    16
 71
     2
 72
     9
  0
VERTEX
  8
I-FLU
  5
394
 10
82.020522
 20
262.114513
 30
-6.615422
 70
    64
  0
VERTEX
  8
I-FLU
  5
395
 10
86.294249
 20
262.114513
 30
-9.453016
 70
    64
  0
VERTEX
  8
I-FLU
  5
396
 10
90.981169
 20
262.114513
 30
-11.538554
 70
    64
  0
VERTEX
  8
I-FLU
  5
397
 10
95.950146
 20
262.114513
 30
-12.813683
 70
    64
  0
VERTEX
  8
I-FLU
  5
398
 10
101.062152
 20
262.114513
 30
-13.242728
 70
    64
  0
VERTEX
  8
I-FLU
  5
399
 10
106.174159
 20
262.114513
 30
-12.813683
 70
    64
  0
VERTEX
  8
I-FLU
  5
39A
 10
111.143136
 20
262.114513
 30
-11.538554
 70
    64
  0
VERTEX
  8
I-FLU
  5
39B
 10
115.830056
 20
262.114513
 30
-9.453016
 70
    64
  0
VERTEX
  8
I-FLU
  5
39C
 10
120.103783
 20
262.114513
 30
-6.615422
 70
    64
  0
VERTEX
  8
I-FLU
  5
39D
 10
77.020522
 20
262.114513
 30
-6.615422
 70
    64
  0
VERTEX
  8
I-FLU
  5
39E
 10
82.172764
 20
262.114513
 30
-10.843758
 70
    64
  0
VERTEX
  8
I-FLU
  5
39F
 10
88.050916
 20
262.114513
 30
-13.985695
 70
    64
  0
VERTEX
  8
I-FLU
  5
3A0
 10
94.429081
 20
262.114513
 30
-15.92049
 70
    64
  0
VERTEX
  8
I-FLU
  5
3A1
 10
101.062152
 20
262.114513
 30
-16.573791
 70
    64
  0
VERTEX
  8
I-FLU
  5
3A2
 10
107.695223
 20
262.114513
 30
-15.92049
 70
    64
  0
VERTEX
  8
I-FLU
  5
3A3
 10
114.073389
 20
262.114513
 30
-13.985695
 70
    64
  0
VERTEX
  8
I-FLU
  5
3A4
 10
119.95154
 20
262.114513
 30
-10.843758
 70
    64
  0
VERTEX
  8
I-FLU
  5
3A5
 10
125.103783
 20
262.114513
 30
-6.615422
 70
    64
  0
SEQEND
  8
I-FLU
  5
3A6
  0
POLYLINE
  8
I-FLU
  5
3A7
 66
     1
 10
0.0
 20
0.0
 30
0.0
 70
    16
 71
     2
 72
     9
  0
VERTEX
  8
I-FLU
  5
3A8
 10
82.020522
 20
277.114513
 30
-6.615422
 70
    64
  0
VERTEX
  8
I-FLU
  5
3A9
 10
86.294249
 20
277.114513
 30
-9.453016
 70
    64
  0
VERTEX
  8
I-FLU
  5
3AA
 10
90.981169
 20
277.114513
 30
-11.538554
 70
    64
  0
VERTEX
  8
I-FLU
  5
3AB
 10
95.950146
 20
277.114513
 30
-12.813683
 70
    64
  0
VERTEX
  8
I-FLU
  5
3AC
 10
101.062152
 20
277.114513
 30
-13.242728
 70
    64
  0
VERTEX
  8
I-FLU
  5
3AD
 10
106.174159
 20
277.114513
 30
-12.813683
 70
    64
  0
VERTEX
  8
I-FLU
  5
3AE
 10
111.143136
 20
277.114513
 30
-11.538554
 70
    64
  0
VERTEX
  8
I-FLU
  5
3AF
 10
115.830056
 20
277.114513
 30
-9.453016
 70
    64
  0
VERTEX
  8
I-FLU
  5
3B0
 10
120.103783
 20
277.114513
 30
-6.615422
 70
    64
  0
VERTEX
  8
I-FLU
  5
3B1
 10
77.020522
 20
277.114513
 30
-6.615422
 70
    64
  0
VERTEX
  8
I-FLU
  5
3B2
 10
82.172764
 20
277.114513
 30
-10.843758
 70
    64
  0
VERTEX
  8
I-FLU
  5
3B3
 10
88.050916
 20
277.114513
 30
-13.985695
 70
    64
  0
VERTEX
  8
I-FLU
  5
3B4
 10
94.429081
 20
277.114513
 30
-15.92049
 70
    64
  0
VERTEX
  8
I-FLU
  5
3B5
 10
101.062152
 20
277.114513
 30
-16.573791
 70
    64
  0
VERTEX
  8
I-FLU
  5
3B6
 10
107.695223
 20
277.114513
 30
-15.92049
 70
    64
  0
VERTEX
  8
I-FLU
  5
3B7
 10
114.073389
 20
277.114513
 30
-13.985695
 70
    64
  0
VERTEX
  8
I-FLU
  5
3B8
 10
119.95154
 20
277.114513
 30
-10.843758
 70
    64
  0
VERTEX
  8
I-FLU
  5
3B9
 10
125.103783
 20
277.114513
 30
-6.615422
 70
    64
  0
SEQEND
  8
I-FLU
  5
3BA
  0
POLYLINE
  8
I-FLU
  5
3BB
 66
     1
 10
0.0
 20
0.0
 30
0.0
 70
    16
 71
     2
 72
     9
  0
VERTEX
  8
I-FLU
  5
3BC
 10
82.020522
 20
292.114513
 30
-6.615422
 70
    64
  0
VERTEX
  8
I-FLU
  5
3BD
 10
86.294249
 20
292.114513
 30
-9.453016
 70
    64
  0
VERTEX
  8
I-FLU
  5
3BE
 10
90.981169
 20
292.114513
 30
-11.538554
 70
    64
  0
VERTEX
  8
I-FLU
  5
3BF
 10
95.950146
 20
292.114513
 30
-12.813683
 70
    64
  0
VERTEX
  8
I-FLU
  5
3C0
 10
101.062152
 20
292.114513
 30
-13.242728
 70
    64
  0
VERTEX
  8
I-FLU
  5
3C1
 10
106.174159
 20
292.114513
 30
-12.813683
 70
    64
  0
VERTEX
  8
I-FLU
  5
3C2
 10
111.143136
 20
292.114513
 30
-11.538554
 70
    64
  0
VERTEX
  8
I-FLU
  5
3C3
 10
115.830056
 20
292.114513
 30
-9.453016
 70
    64
  0
VERTEX
  8
I-FLU
  5
3C4
 10
120.103783
 20
292.114513
 30
-6.615422
 70
    64
  0
VERTEX
  8
I-FLU
  5
3C5
 10
77.020522
 20
292.114513
 30
-6.615422
 70
    64
  0
VERTEX
  8
I-FLU
  5
3C6
 10
82.172764
 20
292.114513
 30
-10.843758
 70
    64
  0
VERTEX
  8
I-FLU
  5
3C7
 10
88.050916
 20
292.114513
 30
-13.985695
 70
    64
  0
VERTEX
  8
I-FLU
  5
3C8
 10
94.429081
 20
292.114513
 30
-15.92049
 70
    64
  0
VERTEX
  8
I-FLU
  5
3C9
 10
101.062152
 20
292.114513
 30
-16.573791
 70
    64
  0
VERTEX
  8
I-FLU
  5
3CA
 10
107.695223
 20
292.114513
 30
-15.92049
 70
    64
  0
VERTEX
  8
I-FLU
  5
3CB
 10
114.073389
 20
292.114513
 30
-13.985695
 70
    64
  0
VERTEX
  8
I-FLU
  5
3CC
 10
119.95154
 20
292.114513
 30
-10.843758
 70
    64
  0
VERTEX
  8
I-FLU
  5
3CD
 10
125.103783
 20
292.114513
 30
-6.615422
 70
    64
  0
SEQEND
  8
I-FLU
  5
3CE
  0
POLYLINE
  8
I-FLU
  5
3CF
 66
     1
 10
0.0
 20
0.0
 30
0.0
 70
    16
 71
     2
 72
     9
  0
VERTEX
  8
I-FLU
  5
3D0
 10
82.020522
 20
307.114513
 30
-6.615422
 70
    64
  0
VERTEX
  8
I-FLU
  5
3D1
 10
86.294249
 20
307.114513
 30
-9.453016
 70
    64
  0
VERTEX
  8
I-FLU
  5
3D2
 10
90.981169
 20
307.114513
 30
-11.538554
 70
    64
  0
VERTEX
  8
I-FLU
  5
3D3
 10
95.950146
 20
307.114513
 30
-12.813683
 70
    64
  0
VERTEX
  8
I-FLU
  5
3D4
 10
101.062152
 20
307.114513
 30
-13.242728
 70
    64
  0
VERTEX
  8
I-FLU
  5
3D5
 10
106.174159
 20
307.114513
 30
-12.813683
 70
    64
  0
VERTEX
  8
I-FLU
  5
3D6
 10
111.143136
 20
307.114513
 30
-11.538554
 70
    64
  0
VERTEX
  8
I-FLU
  5
3D7
 10
115.830056
 20
307.114513
 30
-9.453016
 70
    64
  0
VERTEX
  8
I-FLU
  5
3D8
 10
120.103783
 20
307.114513
 30
-6.615422
 70
    64
  0
VERTEX
  8
I-FLU
  5
3D9
 10
77.020522
 20
307.114513
 30
-6.615422
 70
    64
  0
VERTEX
  8
I-FLU
  5
3DA
 10
82.172764
 20
307.114513
 30
-10.843758
 70
    64
  0
VERTEX
  8
I-FLU
  5
3DB
 10
88.050916
 20
307.114513
 30
-13.985695
 70
    64
  0
VERTEX
  8
I-FLU
  5
3DC
 10
94.429081
 20
307.114513
 30
-15.92049
 70
    64
  0
VERTEX
  8
I-FLU
  5
3DD
 10
101.062152
 20
307.114513
 30
-16.573791
 70
    64
  0
VERTEX
  8
I-FLU
  5
3DE
 10
107.695223
 20
307.114513
 30
-15.92049
 70
    64
  0
VERTEX
  8
I-FLU
  5
3DF
 10
114.073389
 20
307.114513
 30
-13.985695
 70
    64
  0
VERTEX
  8
I-FLU
  5
3E0
 10
119.95154
 20
307.114513
 30
-10.843758
 70
    64
  0
VERTEX
  8
I-FLU
  5
3E1
 10
125.103783
 20
307.114513
 30
-6.615422
 70
    64
  0
SEQEND
  8
I-FLU
  5
3E2
  0
POLYLINE
  8
I-FLU
  5
3E3
 66
     1
 10
0.0
 20
0.0
 30
0.0
 70
    16
 71
     2
 72
     9
  0
VERTEX
  8
I-FLU
  5
3E4
 10
82.020522
 20
322.114513
 30
-6.615422
 70
    64
  0
VERTEX
  8
I-FLU
  5
3E5
 10
86.294249
 20
322.114513
 30
-9.453016
 70
    64
  0
VERTEX
  8
I-FLU
  5
3E6
 10
90.981169
 20
322.114513
 30
-11.538554
 70
    64
  0
VERTEX
  8
I-FLU
  5
3E7
 10
95.950146
 20
322.114513
 30
-12.813683
 70
    64
  0
VERTEX
  8
I-FLU
  5
3E8
 10
101.062152
 20
322.114513
 30
-13.242728
 70
    64
  0
VERTEX
  8
I-FLU
  5
3E9
 10
106.174159
 20
322.114513
 30
-12.813683
 70
    64
  0
VERTEX
  8
I-FLU
  5
3EA
 10
111.143136
 20
322.114513
 30
-11.538554
 70
    64
  0
VERTEX
  8
I-FLU
  5
3EB
 10
115.830056
 20
322.114513
 30
-9.453016
 70
    64
  0
VERTEX
  8
I-FLU
  5
3EC
 10
120.103783
 20
322.114513
 30
-6.615422
 70
    64
  0
VERTEX
  8
I-FLU
  5
3ED
 10
77.020522
 20
322.114513
 30
-6.615422
 70
    64
  0
VERTEX
  8
I-FLU
  5
3EE
 10
82.172764
 20
322.114513
 30
-10.843758
 70
    64
  0
VERTEX
  8
I-FLU
  5
3EF
 10
88.050916
 20
322.114513
 30
-13.985695
 70
    64
  0
VERTEX
  8
I-FLU
  5
3F0
 10
94.429081
 20
322.114513
 30
-15.92049
 70
    64
  0
VERTEX
  8
I-FLU
  5
3F1
 10
101.062152
 20
322.114513
 30
-16.573791
 70
    64
  0
VERTEX
  8
I-FLU
  5
3F2
 10
107.695223
 20
322.114513
 30
-15.92049
 70
    64
  0
VERTEX
  8
I-FLU
  5
3F3
 10
114.073389
 20
322.114513
 30
-13.985695
 70
    64
  0
VERTEX
  8
I-FLU
  5
3F4
 10
119.95154
 20
322.114513
 30
-10.843758
 70
    64
  0
VERTEX
  8
I-FLU
  5
3F5
 10
125.103783
 20
322.114513
 30
-6.615422
 70
    64
  0
SEQEND
  8
I-FLU
  5
3F6
  0
POLYLINE
  8
I-FLU
  5
3F7
 66
     1
 10
0.0
 20
0.0
 30
0.0
 70
    16
 71
     2
 72
     9
  0
VERTEX
  8
I-FLU
  5
3F8
 10
82.020522
 20
337.114513
 30
-6.615422
 70
    64
  0
VERTEX
  8
I-FLU
  5
3F9
 10
86.294249
 20
337.114513
 30
-9.453016
 70
    64
  0
VERTEX
  8
I-FLU
  5
3FA
 10
90.981169
 20
337.114513
 30
-11.538554
 70
    64
  0
VERTEX
  8
I-FLU
  5
3FB
 10
95.950146
 20
337.114513
 30
-12.813683
 70
    64
  0
VERTEX
  8
I-FLU
  5
3FC
 10
101.062152
 20
337.114513
 30
-13.242728
 70
    64
  0
VERTEX
  8
I-FLU
  5
3FD
 10
106.174159
 20
337.114513
 30
-12.813683
 70
    64
  0
VERTEX
  8
I-FLU
  5
3FE
 10
111.143136
 20
337.114513
 30
-11.538554
 70
    64
  0
VERTEX
  8
I-FLU
  5
3FF
 10
115.830056
 20
337.114513
 30
-9.453016
 70
    64
  0
VERTEX
  8
I-FLU
  5
400
 10
120.103783
 20
337.114513
 30
-6.615422
 70
    64
  0
VERTEX
  8
I-FLU
  5
401
 10
77.020522
 20
337.114513
 30
-6.615422
 70
    64
  0
VERTEX
  8
I-FLU
  5
402
 10
82.172764
 20
337.114513
 30
-10.843758
 70
    64
  0
VERTEX
  8
I-FLU
  5
403
 10
88.050916
 20
337.114513
 30
-13.985695
 70
    64
  0
VERTEX
  8
I-FLU
  5
404
 10
94.429081
 20
337.114513
 30
-15.92049
 70
    64
  0
VERTEX
  8
I-FLU
  5
405
 10
101.062152
 20
337.114513
 30
-16.573791
 70
    64
  0
VERTEX
  8
I-FLU
  5
406
 10
107.695223
 20
337.114513
 30
-15.92049
 70
    64
  0
VERTEX
  8
I-FLU
  5
407
 10
114.073389
 20
337.114513
 30
-13.985695
 70
    64
  0
VERTEX
  8
I-FLU
  5
408
 10
119.95154
 20
337.114513
 30
-10.843758
 70
    64
  0
VERTEX
  8
I-FLU
  5
409
 10
125.103783
 20
337.114513
 30
-6.615422
 70
    64
  0
SEQEND
  8
I-FLU
  5
40A
  0
POLYLINE
  8
I-FLU
  5
40B
 66
     1
 10
0.0
 20
0.0
 30
0.0
 70
    16
 71
     2
 72
     9
  0
VERTEX
  8
I-FLU
  5
40C
 10
82.020522
 20
352.114513
 30
-6.615422
 70
    64
  0
VERTEX
  8
I-FLU
  5
40D
 10
86.294249
 20
352.114513
 30
-9.453016
 70
    64
  0
VERTEX
  8
I-FLU
  5
40E
 10
90.981169
 20
352.114513
 30
-11.538554
 70
    64
  0
VERTEX
  8
I-FLU
  5
40F
 10
95.950146
 20
352.114513
 30
-12.813683
 70
    64
  0
VERTEX
  8
I-FLU
  5
410
 10
101.062152
 20
352.114513
 30
-13.242728
 70
    64
  0
VERTEX
  8
I-FLU
  5
411
 10
106.174159
 20
352.114513
 30
-12.813683
 70
    64
  0
VERTEX
  8
I-FLU
  5
412
 10
111.143136
 20
352.114513
 30
-11.538554
 70
    64
  0
VERTEX
  8
I-FLU
  5
413
 10
115.830056
 20
352.114513
 30
-9.453016
 70
    64
  0
VERTEX
  8
I-FLU
  5
414
 10
120.103783
 20
352.114513
 30
-6.615422
 70
    64
  0
VERTEX
  8
I-FLU
  5
415
 10
77.020522
 20
352.114513
 30
-6.615422
 70
    64
  0
VERTEX
  8
I-FLU
  5
416
 10
82.172764
 20
352.114513
 30
-10.843758
 70
    64
  0
VERTEX
  8
I-FLU
  5
417
 10
88.050916
 20
352.114513
 30
-13.985695
 70
    64
  0
VERTEX
  8
I-FLU
  5
418
 10
94.429081
 20
352.114513
 30
-15.92049
 70
    64
  0
VERTEX
  8
I-FLU
  5
419
 10
101.062152
 20
352.114513
 30
-16.573791
 70
    64
  0
VERTEX
  8
I-FLU
  5
41A
 10
107.695223
 20
352.114513
 30
-15.92049
 70
    64
  0
VERTEX
  8
I-FLU
  5
41B
 10
114.073389
 20
352.114513
 30
-13.985695
 70
    64
  0
VERTEX
  8
I-FLU
  5
41C
 10
119.95154
 20
352.114513
 30
-10.843758
 70
    64
  0
VERTEX
  8
I-FLU
  5
41D
 10
125.103783
 20
352.114513
 30
-6.615422
 70
    64
  0
SEQEND
  8
I-FLU
  5
41E
  0
POLYLINE
  8
I-FLU
  5
41F
 66
     1
 10
0.0
 20
0.0
 30
0.0
 70
    16
 71
     2
 72
     9
  0
VERTEX
  8
I-FLU
  5
420
 10
82.020522
 20
367.114513
 30
-6.615422
 70
    64
  0
VERTEX
  8
I-FLU
  5
421
 10
86.294249
 20
367.114513
 30
-9.453016
 70
    64
  0
VERTEX
  8
I-FLU
  5
422
 10
90.981169
 20
367.114513
 30
-11.538554
 70
    64
  0
VERTEX
  8
I-FLU
  5
423
 10
95.950146
 20
367.114513
 30
-12.813683
 70
    64
  0
VERTEX
  8
I-FLU
  5
424
 10
101.062152
 20
367.114513
 30
-13.242728
 70
    64
  0
VERTEX
  8
I-FLU
  5
425
 10
106.174159
 20
367.114513
 30
-12.813683
 70
    64
  0
VERTEX
  8
I-FLU
  5
426
 10
111.143136
 20
367.114513
 30
-11.538554
 70
    64
  0
VERTEX
  8
I-FLU
  5
427
 10
115.830056
 20
367.114513
 30
-9.453016
 70
    64
  0
VERTEX
  8
I-FLU
  5
428
 10
120.103783
 20
367.114513
 30
-6.615422
 70
    64
  0
VERTEX
  8
I-FLU
  5
429
 10
77.020522
 20
367.114513
 30
-6.615422
 70
    64
  0
VERTEX
  8
I-FLU
  5
42A
 10
82.172764
 20
367.114513
 30
-10.843758
 70
    64
  0
VERTEX
  8
I-FLU
  5
42B
 10
88.050916
 20
367.114513
 30
-13.985695
 70
    64
  0
VERTEX
  8
I-FLU
  5
42C
 10
94.429081
 20
367.114513
 30
-15.92049
 70
    64
  0
VERTEX
  8
I-FLU
  5
42D
 10
101.062152
 20
367.114513
 30
-16.573791
 70
    64
  0
VERTEX
  8
I-FLU
  5
42E
 10
107.695223
 20
367.114513
 30
-15.92049
 70
    64
  0
VERTEX
  8
I-FLU
  5
42F
 10
114.073389
 20
367.114513
 30
-13.985695
 70
    64
  0
VERTEX
  8
I-FLU
  5
430
 10
119.95154
 20
367.114513
 30
-10.843758
 70
    64
  0
VERTEX
  8
I-FLU
  5
431
 10
125.103783
 20
367.114513
 30
-6.615422
 70
    64
  0
SEQEND
  8
I-FLU
  5
432
  0
POLYLINE
  8
I-FLU
  5
433
 66
     1
 10
0.0
 20
0.0
 30
0.0
 70
    16
 71
     2
 72
     9
  0
VERTEX
  8
I-FLU
  5
434
 10
82.020522
 20
382.114513
 30
-6.615422
 70
    64
  0
VERTEX
  8
I-FLU
  5
435
 10
86.294249
 20
382.114513
 30
-9.453016
 70
    64
  0
VERTEX
  8
I-FLU
  5
436
 10
90.981169
 20
382.114513
 30
-11.538554
 70
    64
  0
VERTEX
  8
I-FLU
  5
437
 10
95.950146
 20
382.114513
 30
-12.813683
 70
    64
  0
VERTEX
  8
I-FLU
  5
438
 10
101.062152
 20
382.114513
 30
-13.242728
 70
    64
  0
VERTEX
  8
I-FLU
  5
439
 10
106.174159
 20
382.114513
 30
-12.813683
 70
    64
  0
VERTEX
  8
I-FLU
  5
43A
 10
111.143136
 20
382.114513
 30
-11.538554
 70
    64
  0
VERTEX
  8
I-FLU
  5
43B
 10
115.830056
 20
382.114513
 30
-9.453016
 70
    64
  0
VERTEX
  8
I-FLU
  5
43C
 10
120.103783
 20
382.114513
 30
-6.615422
 70
    64
  0
VERTEX
  8
I-FLU
  5
43D
 10
77.020522
 20
382.114513
 30
-6.615422
 70
    64
  0
VERTEX
  8
I-FLU
  5
43E
 10
82.172764
 20
382.114513
 30
-10.843758
 70
    64
  0
VERTEX
  8
I-FLU
  5
43F
 10
88.050916
 20
382.114513
 30
-13.985695
 70
    64
  0
VERTEX
  8
I-FLU
  5
440
 10
94.429081
 20
382.114513
 30
-15.92049
 70
    64
  0
VERTEX
  8
I-FLU
  5
441
 10
101.062152
 20
382.114513
 30
-16.573791
 70
    64
  0
VERTEX
  8
I-FLU
  5
442
 10
107.695223
 20
382.114513
 30
-15.92049
 70
    64
  0
VERTEX
  8
I-FLU
  5
443
 10
114.073389
 20
382.114513
 30
-13.985695
 70
    64
  0
VERTEX
  8
I-FLU
  5
444
 10
119.95154
 20
382.114513
 30
-10.843758
 70
    64
  0
VERTEX
  8
I-FLU
  5
445
 10
125.103783
 20
382.114513
 30
-6.615422
 70
    64
  0
SEQEND
  8
I-FLU
  5
446
  0
POLYLINE
  8
I-FLU
  5
447
 66
     1
 10
0.0
 20
0.0
 30
0.0
 70
    16
 71
     2
 72
     9
  0
VERTEX
  8
I-FLU
  5
448
 10
82.020522
 20
397.114513
 30
-6.615422
 70
    64
  0
VERTEX
  8
I-FLU
  5
449
 10
86.294249
 20
397.114513
 30
-9.453016
 70
    64
  0
VERTEX
  8
I-FLU
  5
44A
 10
90.981169
 20
397.114513
 30
-11.538554
 70
    64
  0
VERTEX
  8
I-FLU
  5
44B
 10
95.950146
 20
397.114513
 30
-12.813683
 70
    64
  0
VERTEX
  8
I-FLU
  5
44C
 10
101.062152
 20
397.114513
 30
-13.242728
 70
    64
  0
VERTEX
  8
I-FLU
  5
44D
 10
106.174159
 20
397.114513
 30
-12.813683
 70
    64
  0
VERTEX
  8
I-FLU
  5
44E
 10
111.143136
 20
397.114513
 30
-11.538554
 70
    64
  0
VERTEX
  8
I-FLU
  5
44F
 10
115.830056
 20
397.114513
 30
-9.453016
 70
    64
  0
VERTEX
  8
I-FLU
  5
450
 10
120.103783
 20
397.114513
 30
-6.615422
 70
    64
  0
VERTEX
  8
I-FLU
  5
451
 10
77.020522
 20
397.114513
 30
-6.615422
 70
    64
  0
VERTEX
  8
I-FLU
  5
452
 10
82.172764
 20
397.114513
 30
-10.843758
 70
    64
  0
VERTEX
  8
I-FLU
  5
453
 10
88.050916
 20
397.114513
 30
-13.985695
 70
    64
  0
VERTEX
  8
I-FLU
  5
454
 10
94.429081
 20
397.114513
 30
-15.92049
 70
    64
  0
VERTEX
  8
I-FLU
  5
455
 10
101.062152
 20
397.114513
 30
-16.573791
 70
    64
  0
VERTEX
  8
I-FLU
  5
456
 10
107.695223
 20
397.114513
 30
-15.92049
 70
    64
  0
VERTEX
  8
I-FLU
  5
457
 10
114.073389
 20
397.114513
 30
-13.985695
 70
    64
  0
VERTEX
  8
I-FLU
  5
458
 10
119.95154
 20
397.114513
 30
-10.843758
 70
    64
  0
VERTEX
  8
I-FLU
  5
459
 10
125.103783
 20
397.114513
 30
-6.615422
 70
    64
  0
SEQEND
  8
I-FLU
  5
45A
  0
POLYLINE
  8
I-FLU
  5
45B
 66
     1
 10
0.0
 20
0.0
 30
0.0
 70
    16
 71
     2
 72
     9
  0
VERTEX
  8
I-FLU
  5
45C
 10
82.020522
 20
412.114513
 30
-6.615422
 70
    64
  0
VERTEX
  8
I-FLU
  5
45D
 10
86.294249
 20
412.114513
 30
-9.453016
 70
    64
  0
VERTEX
  8
I-FLU
  5
45E
 10
90.981169
 20
412.114513
 30
-11.538554
 70
    64
  0
VERTEX
  8
I-FLU
  5
45F
 10
95.950146
 20
412.114513
 30
-12.813683
 70
    64
  0
VERTEX
  8
I-FLU
  5
460
 10
101.062152
 20
412.114513
 30
-13.242728
 70
    64
  0
VERTEX
  8
I-FLU
  5
461
 10
106.174159
 20
412.114513
 30
-12.813683
 70
    64
  0
VERTEX
  8
I-FLU
  5
462
 10
111.143136
 20
412.114513
 30
-11.538554
 70
    64
  0
VERTEX
  8
I-FLU
  5
463
 10
115.830056
 20
412.114513
 30
-9.453016
 70
    64
  0
VERTEX
  8
I-FLU
  5
464
 10
120.103783
 20
412.114513
 30
-6.615422
 70
    64
  0
VERTEX
  8
I-FLU
  5
465
 10
77.020522
 20
412.114513
 30
-6.615422
 70
    64
  0
VERTEX
  8
I-FLU
  5
466
 10
82.172764
 20
412.114513
 30
-10.843758
 70
    64
  0
VERTEX
  8
I-FLU
  5
467
 10
88.050916
 20
412.114513
 30
-13.985695
 70
    64
  0
VERTEX
  8
I-FLU
  5
468
 10
94.429081
 20
412.114513
 30
-15.92049
 70
    64
  0
VERTEX
  8
I-FLU
  5
469
 10
101.062152
 20
412.114513
 30
-16.573791
 70
    64
  0
VERTEX
  8
I-FLU
  5
46A
 10
107.695223
 20
412.114513
 30
-15.92049
 70
    64
  0
VERTEX
  8
I-FLU
  5
46B
 10
114.073389
 20
412.114513
 30
-13.985695
 70
    64
  0
VERTEX
  8
I-FLU
  5
46C
 10
119.95154
 20
412.114513
 30
-10.843758
 70
    64
  0
VERTEX
  8
I-FLU
  5
46D
 10
125.103783
 20
412.114513
 30
-6.615422
 70
    64
  0
SEQEND
  8
I-FLU
  5
46E
  0
POLYLINE
  8
I-FLU
  5
46F
 66
     1
 10
0.0
 20
0.0
 30
0.0
 70
    16
 71
     2
 72
     9
  0
VERTEX
  8
I-FLU
  5
470
 10
82.020522
 20
427.114513
 30
-6.615422
 70
    64
  0
VERTEX
  8
I-FLU
  5
471
 10
86.294249
 20
427.114513
 30
-9.453016
 70
    64
  0
VERTEX
  8
I-FLU
  5
472
 10
90.981169
 20
427.114513
 30
-11.538554
 70
    64
  0
VERTEX
  8
I-FLU
  5
473
 10
95.950146
 20
427.114513
 30
-12.813683
 70
    64
  0
VERTEX
  8
I-FLU
  5
474
 10
101.062152
 20
427.114513
 30
-13.242728
 70
    64
  0
VERTEX
  8
I-FLU
  5
475
 10
106.174159
 20
427.114513
 30
-12.813683
 70
    64
  0
VERTEX
  8
I-FLU
  5
476
 10
111.143136
 20
427.114513
 30
-11.538554
 70
    64
  0
VERTEX
  8
I-FLU
  5
477
 10
115.830056
 20
427.114513
 30
-9.453016
 70
    64
  0
VERTEX
  8
I-FLU
  5
478
 10
120.103783
 20
427.114513
 30
-6.615422
 70
    64
  0
VERTEX
  8
I-FLU
  5
479
 10
77.020522
 20
427.114513
 30
-6.615422
 70
    64
  0
VERTEX
  8
I-FLU
  5
47A
 10
82.172764
 20
427.114513
 30
-10.843758
 70
    64
  0
VERTEX
  8
I-FLU
  5
47B
 10
88.050916
 20
427.114513
 30
-13.985695
 70
    64
  0
VERTEX
  8
I-FLU
  5
47C
 10
94.429081
 20
427.114513
 30
-15.92049
 70
    64
  0
VERTEX
  8
I-FLU
  5
47D
 10
101.062152
 20
427.114513
 30
-16.573791
 70
    64
  0
VERTEX
  8
I-FLU
  5
47E
 10
107.695223
 20
427.114513
 30
-15.92049
 70
    64
  0
VERTEX
  8
I-FLU
  5
47F
 10
114.073389
 20
427.114513
 30
-13.985695
 70
    64
  0
VERTEX
  8
I-FLU
  5
480
 10
119.95154
 20
427.114513
 30
-10.843758
 70
    64
  0
VERTEX
  8
I-FLU
  5
481
 10
125.103783
 20
427.114513
 30
-6.615422
 70
    64
  0
SEQEND
  8
I-FLU
  5
482
  0
POLYLINE
  8
I-FLU
  5
483
 66
     1
 10
0.0
 20
0.0
 30
0.0
 70
    16
 71
     2
 72
     9
  0
VERTEX
  8
I-FLU
  5
484
 10
82.020522
 20
442.114513
 30
-6.615422
 70
    64
  0
VERTEX
  8
I-FLU
  5
485
 10
86.294249
 20
442.114513
 30
-9.453016
 70
    64
  0
VERTEX
  8
I-FLU
  5
486
 10
90.981169
 20
442.114513
 30
-11.538554
 70
    64
  0
VERTEX
  8
I-FLU
  5
487
 10
95.950146
 20
442.114513
 30
-12.813683
 70
    64
  0
VERTEX
  8
I-FLU
  5
488
 10
101.062152
 20
442.114513
 30
-13.242728
 70
    64
  0
VERTEX
  8
I-FLU
  5
489
 10
106.174159
 20
442.114513
 30
-12.813683
 70
    64
  0
VERTEX
  8
I-FLU
  5
48A
 10
111.143136
 20
442.114513
 30
-11.538554
 70
    64
  0
VERTEX
  8
I-FLU
  5
48B
 10
115.830056
 20
442.114513
 30
-9.453016
 70
    64
  0
VERTEX
  8
I-FLU
  5
48C
 10
120.103783
 20
442.114513
 30
-6.615422
 70
    64
  0
VERTEX
  8
I-FLU
  5
48D
 10
77.020522
 20
442.114513
 30
-6.615422
 70
    64
  0
VERTEX
  8
I-FLU
  5
48E
 10
82.172764
 20
442.114513
 30
-10.843758
 70
    64
  0
VERTEX
  8
I-FLU
  5
48F
 10
88.050916
 20
442.114513
 30
-13.985695
 70
    64
  0
VERTEX
  8
I-FLU
  5
490
 10
94.429081
 20
442.114513
 30
-15.92049
 70
    64
  0
VERTEX
  8
I-FLU
  5
491
 10
101.062152
 20
442.114513
 30
-16.573791
 70
    64
  0
VERTEX
  8
I-FLU
  5
492
 10
107.695223
 20
442.114513
 30
-15.92049
 70
    64
  0
VERTEX
  8
I-FLU
  5
493
 10
114.073389
 20
442.114513
 30
-13.985695
 70
    64
  0
VERTEX
  8
I-FLU
  5
494
 10
119.95154
 20
442.114513
 30
-10.843758
 70
    64
  0
VERTEX
  8
I-FLU
  5
495
 10
125.103783
 20
442.114513
 30
-6.615422
 70
    64
  0
SEQEND
  8
I-FLU
  5
496
  0
POLYLINE
  8
I-FLU
  5
497
 66
     1
 10
0.0
 20
0.0
 30
0.0
 70
    16
 71
     2
 72
     9
  0
VERTEX
  8
I-FLU
  5
498
 10
82.020522
 20
457.114513
 30
-6.615422
 70
    64
  0
VERTEX
  8
I-FLU
  5
499
 10
86.294249
 20
457.114513
 30
-9.453016
 70
    64
  0
VERTEX
  8
I-FLU
  5
49A
 10
90.981169
 20
457.114513
 30
-11.538554
 70
    64
  0
VERTEX
  8
I-FLU
  5
49B
 10
95.950146
 20
457.114513
 30
-12.813683
 70
    64
  0
VERTEX
  8
I-FLU
  5
49C
 10
101.062152
 20
457.114513
 30
-13.242728
 70
    64
  0
VERTEX
  8
I-FLU
  5
49D
 10
106.174159
 20
457.114513
 30
-12.813683
 70
    64
  0
VERTEX
  8
I-FLU
  5
49E
 10
111.143136
 20
457.114513
 30
-11.538554
 70
    64
  0
VERTEX
  8
I-FLU
  5
49F
 10
115.830056
 20
457.114513
 30
-9.453016
 70
    64
  0
VERTEX
  8
I-FLU
  5
4A0
 10
120.103783
 20
457.114513
 30
-6.615422
 70
    64
  0
VERTEX
  8
I-FLU
  5
4A1
 10
77.020522
 20
457.114513
 30
-6.615422
 70
    64
  0
VERTEX
  8
I-FLU
  5
4A2
 10
82.172764
 20
457.114513
 30
-10.843758
 70
    64
  0
VERTEX
  8
I-FLU
  5
4A3
 10
88.050916
 20
457.114513
 30
-13.985695
 70
    64
  0
VERTEX
  8
I-FLU
  5
4A4
 10
94.429081
 20
457.114513
 30
-15.92049
 70
    64
  0
VERTEX
  8
I-FLU
  5
4A5
 10
101.062152
 20
457.114513
 30
-16.573791
 70
    64
  0
VERTEX
  8
I-FLU
  5
4A6
 10
107.695223
 20
457.114513
 30
-15.92049
 70
    64
  0
VERTEX
  8
I-FLU
  5
4A7
 10
114.073389
 20
457.114513
 30
-13.985695
 70
    64
  0
VERTEX
  8
I-FLU
  5
4A8
 10
119.95154
 20
457.114513
 30
-10.843758
 70
    64
  0
VERTEX
  8
I-FLU
  5
4A9
 10
125.103783
 20
457.114513
 30
-6.615422
 70
    64
  0
SEQEND
  8
I-FLU
  5
4AA
  0
POLYLINE
  8
I-FLU
  5
4AB
 66
     1
 10
0.0
 20
0.0
 30
0.0
 70
    16
 71
     2
 72
     9
  0
VERTEX
  8
I-FLU
  5
4AC
 10
82.020522
 20
472.114513
 30
-6.615422
 70
    64
  0
VERTEX
  8
I-FLU
  5
4AD
 10
86.294249
 20
472.114513
 30
-9.453016
 70
    64
  0
VERTEX
  8
I-FLU
  5
4AE
 10
90.981169
 20
472.114513
 30
-11.538554
 70
    64
  0
VERTEX
  8
I-FLU
  5
4AF
 10
95.950146
 20
472.114513
 30
-12.813683
 70
    64
  0
VERTEX
  8
I-FLU
  5
4B0
 10
101.062152
 20
472.114513
 30
-13.242728
 70
    64
  0
VERTEX
  8
I-FLU
  5
4B1
 10
106.174159
 20
472.114513
 30
-12.813683
 70
    64
  0
VERTEX
  8
I-FLU
  5
4B2
 10
111.143136
 20
472.114513
 30
-11.538554
 70
    64
  0
VERTEX
  8
I-FLU
  5
4B3
 10
115.830056
 20
472.114513
 30
-9.453016
 70
    64
  0
VERTEX
  8
I-FLU
  5
4B4
 10
120.103783
 20
472.114513
 30
-6.615422
 70
    64
  0
VERTEX
  8
I-FLU
  5
4B5
 10
77.020522
 20
472.114513
 30
-6.615422
 70
    64
  0
VERTEX
  8
I-FLU
  5
4B6
 10
82.172764
 20
472.114513
 30
-10.843758
 70
    64
  0
VERTEX
  8
I-FLU
  5
4B7
 10
88.050916
 20
472.114513
 30
-13.985695
 70
    64
  0
VERTEX
  8
I-FLU
  5
4B8
 10
94.429081
 20
472.114513
 30
-15.92049
 70
    64
  0
VERTEX
  8
I-FLU
  5
4B9
 10
101.062152
 20
472.114513
 30
-16.573791
 70
    64
  0
VERTEX
  8
I-FLU
  5
4BA
 10
107.695223
 20
472.114513
 30
-15.92049
 70
    64
  0
VERTEX
  8
I-FLU
  5
4BB
 10
114.073389
 20
472.114513
 30
-13.985695
 70
    64
  0
VERTEX
  8
I-FLU
  5
4BC
 10
119.95154
 20
472.114513
 30
-10.843758
 70
    64
  0
VERTEX
  8
I-FLU
  5
4BD
 10
125.103783
 20
472.114513
 30
-6.615422
 70
    64
  0
SEQEND
  8
I-FLU
  5
4BE
  0
POLYLINE
  8
I-FLU
  5
4BF
 66
     1
 10
0.0
 20
0.0
 30
0.0
 70
    16
 71
     2
 72
     9
  0
VERTEX
  8
I-FLU
  5
4C0
 10
82.020522
 20
487.114513
 30
-6.615422
 70
    64
  0
VERTEX
  8
I-FLU
  5
4C1
 10
86.294249
 20
487.114513
 30
-9.453016
 70
    64
  0
VERTEX
  8
I-FLU
  5
4C2
 10
90.981169
 20
487.114513
 30
-11.538554
 70
    64
  0
VERTEX
  8
I-FLU
  5
4C3
 10
95.950146
 20
487.114513
 30
-12.813683
 70
    64
  0
VERTEX
  8
I-FLU
  5
4C4
 10
101.062152
 20
487.114513
 30
-13.242728
 70
    64
  0
VERTEX
  8
I-FLU
  5
4C5
 10
106.174159
 20
487.114513
 30
-12.813683
 70
    64
  0
VERTEX
  8
I-FLU
  5
4C6
 10
111.143136
 20
487.114513
 30
-11.538554
 70
    64
  0
VERTEX
  8
I-FLU
  5
4C7
 10
115.830056
 20
487.114513
 30
-9.453016
 70
    64
  0
VERTEX
  8
I-FLU
  5
4C8
 10
120.103783
 20
487.114513
 30
-6.615422
 70
    64
  0
VERTEX
  8
I-FLU
  5
4C9
 10
77.020522
 20
487.114513
 30
-6.615422
 70
    64
  0
VERTEX
  8
I-FLU
  5
4CA
 10
82.172764
 20
487.114513
 30
-10.843758
 70
    64
  0
VERTEX
  8
I-FLU
  5
4CB
 10
88.050916
 20
487.114513
 30
-13.985695
 70
    64
  0
VERTEX
  8
I-FLU
  5
4CC
 10
94.429081
 20
487.114513
 30
-15.92049
 70
    64
  0
VERTEX
  8
I-FLU
  5
4CD
 10
101.062152
 20
487.114513
 30
-16.573791
 70
    64
  0
VERTEX
  8
I-FLU
  5
4CE
 10
107.695223
 20
487.114513
 30
-15.92049
 70
    64
  0
VERTEX
  8
I-FLU
  5
4CF
 10
114.073389
 20
487.114513
 30
-13.985695
 70
    64
  0
VERTEX
  8
I-FLU
  5
4D0
 10
119.95154
 20
487.114513
 30
-10.843758
 70
    64
  0
VERTEX
  8
I-FLU
  5
4D1
 10
125.103783
 20
487.114513
 30
-6.615422
 70
    64
  0
SEQEND
  8
I-FLU
  5
4D2
  0
POLYLINE
  8
I-FLU
  5
4D3
 66
     1
 10
0.0
 20
0.0
 30
0.0
 70
    16
 71
     2
 72
     9
  0
VERTEX
  8
I-FLU
  5
4D4
 10
82.020522
 20
502.114513
 30
-6.615422
 70
    64
  0
VERTEX
  8
I-FLU
  5
4D5
 10
86.294249
 20
502.114513
 30
-9.453016
 70
    64
  0
VERTEX
  8
I-FLU
  5
4D6
 10
90.981169
 20
502.114513
 30
-11.538554
 70
    64
  0
VERTEX
  8
I-FLU
  5
4D7
 10
95.950146
 20
502.114513
 30
-12.813683
 70
    64
  0
VERTEX
  8
I-FLU
  5
4D8
 10
101.062152
 20
502.114513
 30
-13.242728
 70
    64
  0
VERTEX
  8
I-FLU
  5
4D9
 10
106.174159
 20
502.114513
 30
-12.813683
 70
    64
  0
VERTEX
  8
I-FLU
  5
4DA
 10
111.143136
 20
502.114513
 30
-11.538554
 70
    64
  0
VERTEX
  8
I-FLU
  5
4DB
 10
115.830056
 20
502.114513
 30
-9.453016
 70
    64
  0
VERTEX
  8
I-FLU
  5
4DC
 10
120.103783
 20
502.114513
 30
-6.615422
 70
    64
  0
VERTEX
  8
I-FLU
  5
4DD
 10
77.020522
 20
502.114513
 30
-6.615422
 70
    64
  0
VERTEX
  8
I-FLU
  5
4DE
 10
82.172764
 20
502.114513
 30
-10.843758
 70
    64
  0
VERTEX
  8
I-FLU
  5
4DF
 10
88.050916
 20
502.114513
 30
-13.985695
 70
    64
  0
VERTEX
  8
I-FLU
  5
4E0
 10
94.429081
 20
502.114513
 30
-15.92049
 70
    64
  0
VERTEX
  8
I-FLU
  5
4E1
 10
101.062152
 20
502.114513
 30
-16.573791
 70
    64
  0
VERTEX
  8
I-FLU
  5
4E2
 10
107.695223
 20
502.114513
 30
-15.92049
 70
    64
  0
VERTEX
  8
I-FLU
  5
4E3
 10
114.073389
 20
502.114513
 30
-13.985695
 70
    64
  0
VERTEX
  8
I-FLU
  5
4E4
 10
119.95154
 20
502.114513
 30
-10.843758
 70
    64
  0
VERTEX
  8
I-FLU
  5
4E5
 10
125.103783
 20
502.114513
 30
-6.615422
 70
    64
  0
SEQEND
  8
I-FLU
  5
4E6
  0
POLYLINE
  8
I-FLU
  5
4E7
 66
     1
 10
0.0
 20
0.0
 30
0.0
 70
    16
 71
     2
 72
     9
  0
VERTEX
  8
I-FLU
  5
4E8
 10
82.020522
 20
517.114513
 30
-6.615422
 70
    64
  0
VERTEX
  8
I-FLU
  5
4E9
 10
86.294249
 20
517.114513
 30
-9.453016
 70
    64
  0
VERTEX
  8
I-FLU
  5
4EA
 10
90.981169
 20
517.114513
 30
-11.538554
 70
    64
  0
VERTEX
  8
I-FLU
  5
4EB
 10
95.950146
 20
517.114513
 30
-12.813683
 70
    64
  0
VERTEX
  8
I-FLU
  5
4EC
 10
101.062152
 20
517.114513
 30
-13.242728
 70
    64
  0
VERTEX
  8
I-FLU
  5
4ED
 10
106.174159
 20
517.114513
 30
-12.813683
 70
    64
  0
VERTEX
  8
I-FLU
  5
4EE
 10
111.143136
 20
517.114513
 30
-11.538554
 70
    64
  0
VERTEX
  8
I-FLU
  5
4EF
 10
115.830056
 20
517.114513
 30
-9.453016
 70
    64
  0
VERTEX
  8
I-FLU
  5
4F0
 10
120.103783
 20
517.114513
 30
-6.615422
 70
    64
  0
VERTEX
  8
I-FLU
  5
4F1
 10
77.020522
 20
517.114513
 30
-6.615422
 70
    64
  0
VERTEX
  8
I-FLU
  5
4F2
 10
82.172764
 20
517.114513
 30
-10.843758
 70
    64
  0
VERTEX
  8
I-FLU
  5
4F3
 10
88.050916
 20
517.114513
 30
-13.985695
 70
    64
  0
VERTEX
  8
I-FLU
  5
4F4
 10
94.429081
 20
517.114513
 30
-15.92049
 70
    64
  0
VERTEX
  8
I-FLU
  5
4F5
 10
101.062152
 20
517.114513
 30
-16.573791
 70
    64
  0
VERTEX
  8
I-FLU
  5
4F6
 10
107.695223
 20
517.114513
 30
-15.92049
 70
    64
  0
VERTEX
  8
I-FLU
  5
4F7
 10
114.073389
 20
517.114513
 30
-13.985695
 70
    64
  0
VERTEX
  8
I-FLU
  5
4F8
 10
119.95154
 20
517.114513
 30
-10.843758
 70
    64
  0
VERTEX
  8
I-FLU
  5
4F9
 10
125.103783
 20
517.114513
 30
-6.615422
 70
    64
  0
SEQEND
  8
I-FLU
  5
4FA
  0
POLYLINE
  8
I-FLU
  5
4FB
 66
     1
 10
0.0
 20
0.0
 30
0.0
 70
    16
 71
     2
 72
     9
  0
VERTEX
  8
I-FLU
  5
4FC
 10
82.020522
 20
532.114513
 30
-6.615422
 70
    64
  0
VERTEX
  8
I-FLU
  5
4FD
 10
86.294249
 20
532.114513
 30
-9.453016
 70
    64
  0
VERTEX
  8
I-FLU
  5
4FE
 10
90.981169
 20
532.114513
 30
-11.538554
 70
    64
  0
VERTEX
  8
I-FLU
  5
4FF
 10
95.950146
 20
532.114513
 30
-12.813683
 70
    64
  0
VERTEX
  8
I-FLU
  5
500
 10
101.062152
 20
532.114513
 30
-13.242728
 70
    64
  0
VERTEX
  8
I-FLU
  5
501
 10
106.174159
 20
532.114513
 30
-12.813683
 70
    64
  0
VERTEX
  8
I-FLU
  5
502
 10
111.143136
 20
532.114513
 30
-11.538554
 70
    64
  0
VERTEX
  8
I-FLU
  5
503
 10
115.830056
 20
532.114513
 30
-9.453016
 70
    64
  0
VERTEX
  8
I-FLU
  5
504
 10
120.103783
 20
532.114513
 30
-6.615422
 70
    64
  0
VERTEX
  8
I-FLU
  5
505
 10
77.020522
 20
532.114513
 30
-6.615422
 70
    64
  0
VERTEX
  8
I-FLU
  5
506
 10
82.172764
 20
532.114513
 30
-10.843758
 70
    64
  0
VERTEX
  8
I-FLU
  5
507
 10
88.050916
 20
532.114513
 30
-13.985695
 70
    64
  0
VERTEX
  8
I-FLU
  5
508
 10
94.429081
 20
532.114513
 30
-15.92049
 70
    64
  0
VERTEX
  8
I-FLU
  5
509
 10
101.062152
 20
532.114513
 30
-16.573791
 70
    64
  0
VERTEX
  8
I-FLU
  5
50A
 10
107.695223
 20
532.114513
 30
-15.92049
 70
    64
  0
VERTEX
  8
I-FLU
  5
50B
 10
114.073389
 20
532.114513
 30
-13.985695
 70
    64
  0
VERTEX
  8
I-FLU
  5
50C
 10
119.95154
 20
532.114513
 30
-10.843758
 70
    64
  0
VERTEX
  8
I-FLU
  5
50D
 10
125.103783
 20
532.114513
 30
-6.615422
 70
    64
  0
SEQEND
  8
I-FLU
  5
50E
  0
POLYLINE
  8
I-FLU
  5
50F
 66
     1
 10
0.0
 20
0.0
 30
0.0
 70
    16
 71
     2
 72
     9
  0
VERTEX
  8
I-FLU
  5
510
 10
82.020522
 20
547.114513
 30
-6.615422
 70
    64
  0
VERTEX
  8
I-FLU
  5
511
 10
86.294249
 20
547.114513
 30
-9.453016
 70
    64
  0
VERTEX
  8
I-FLU
  5
512
 10
90.981169
 20
547.114513
 30
-11.538554
 70
    64
  0
VERTEX
  8
I-FLU
  5
513
 10
95.950146
 20
547.114513
 30
-12.813683
 70
    64
  0
VERTEX
  8
I-FLU
  5
514
 10
101.062152
 20
547.114513
 30
-13.242728
 70
    64
  0
VERTEX
  8
I-FLU
  5
515
 10
106.174159
 20
547.114513
 30
-12.813683
 70
    64
  0
VERTEX
  8
I-FLU
  5
516
 10
111.143136
 20
547.114513
 30
-11.538554
 70
    64
  0
VERTEX
  8
I-FLU
  5
517
 10
115.830056
 20
547.114513
 30
-9.453016
 70
    64
  0
VERTEX
  8
I-FLU
  5
518
 10
120.103783
 20
547.114513
 30
-6.615422
 70
    64
  0
VERTEX
  8
I-FLU
  5
519
 10
77.020522
 20
547.114513
 30
-6.615422
 70
    64
  0
VERTEX
  8
I-FLU
  5
51A
 10
82.172764
 20
547.114513
 30
-10.843758
 70
    64
  0
VERTEX
  8
I-FLU
  5
51B
 10
88.050916
 20
547.114513
 30
-13.985695
 70
    64
  0
VERTEX
  8
I-FLU
  5
51C
 10
94.429081
 20
547.114513
 30
-15.92049
 70
    64
  0
VERTEX
  8
I-FLU
  5
51D
 10
101.062152
 20
547.114513
 30
-16.573791
 70
    64
  0
VERTEX
  8
I-FLU
  5
51E
 10
107.695223
 20
547.114513
 30
-15.92049
 70
    64
  0
VERTEX
  8
I-FLU
  5
51F
 10
114.073389
 20
547.114513
 30
-13.985695
 70
    64
  0
VERTEX
  8
I-FLU
  5
520
 10
119.95154
 20
547.114513
 30
-10.843758
 70
    64
  0
VERTEX
  8
I-FLU
  5
521
 10
125.103783
 20
547.114513
 30
-6.615422
 70
    64
  0
SEQEND
  8
I-FLU
  5
522
  0
POLYLINE
  8
I-FLU
  5
523
 66
     1
 10
0.0
 20
0.0
 30
0.0
 70
    16
 71
     2
 72
     9
  0
VERTEX
  8
I-FLU
  5
524
 10
82.020522
 20
562.114513
 30
-6.615422
 70
    64
  0
VERTEX
  8
I-FLU
  5
525
 10
86.294249
 20
562.114513
 30
-9.453016
 70
    64
  0
VERTEX
  8
I-FLU
  5
526
 10
90.981169
 20
562.114513
 30
-11.538554
 70
    64
  0
VERTEX
  8
I-FLU
  5
527
 10
95.950146
 20
562.114513
 30
-12.813683
 70
    64
  0
VERTEX
  8
I-FLU
  5
528
 10
101.062152
 20
562.114513
 30
-13.242728
 70
    64
  0
VERTEX
  8
I-FLU
  5
529
 10
106.174159
 20
562.114513
 30
-12.813683
 70
    64
  0
VERTEX
  8
I-FLU
  5
52A
 10
111.143136
 20
562.114513
 30
-11.538554
 70
    64
  0
VERTEX
  8
I-FLU
  5
52B
 10
115.830056
 20
562.114513
 30
-9.453016
 70
    64
  0
VERTEX
  8
I-FLU
  5
52C
 10
120.103783
 20
562.114513
 30
-6.615422
 70
    64
  0
VERTEX
  8
I-FLU
  5
52D
 10
77.020522
 20
562.114513
 30
-6.615422
 70
    64
  0
VERTEX
  8
I-FLU
  5
52E
 10
82.172764
 20
562.114513
 30
-10.843758
 70
    64
  0
VERTEX
  8
I-FLU
  5
52F
 10
88.050916
 20
562.114513
 30
-13.985695
 70
    64
  0
VERTEX
  8
I-FLU
  5
530
 10
94.429081
 20
562.114513
 30
-15.92049
 70
    64
  0
VERTEX
  8
I-FLU
  5
531
 10
101.062152
 20
562.114513
 30
-16.573791
 70
    64
  0
VERTEX
  8
I-FLU
  5
532
 10
107.695223
 20
562.114513
 30
-15.92049
 70
    64
  0
VERTEX
  8
I-FLU
  5
533
 10
114.073389
 20
562.114513
 30
-13.985695
 70
    64
  0
VERTEX
  8
I-FLU
  5
534
 10
119.95154
 20
562.114513
 30
-10.843758
 70
    64
  0
VERTEX
  8
I-FLU
  5
535
 10
125.103783
 20
562.114513
 30
-6.615422
 70
    64
  0
SEQEND
  8
I-FLU
  5
536
  0
POLYLINE
  8
I-FLU
  5
537
 66
     1
 10
0.0
 20
0.0
 30
0.0
 70
    16
 71
     2
 72
     9
  0
VERTEX
  8
I-FLU
  5
538
 10
82.020522
 20
577.114513
 30
-6.615422
 70
    64
  0
VERTEX
  8
I-FLU
  5
539
 10
86.294249
 20
577.114513
 30
-9.453016
 70
    64
  0
VERTEX
  8
I-FLU
  5
53A
 10
90.981169
 20
577.114513
 30
-11.538554
 70
    64
  0
VERTEX
  8
I-FLU
  5
53B
 10
95.950146
 20
577.114513
 30
-12.813683
 70
    64
  0
VERTEX
  8
I-FLU
  5
53C
 10
101.062152
 20
577.114513
 30
-13.242728
 70
    64
  0
VERTEX
  8
I-FLU
  5
53D
 10
106.174159
 20
577.114513
 30
-12.813683
 70
    64
  0
VERTEX
  8
I-FLU
  5
53E
 10
111.143136
 20
577.114513
 30
-11.538554
 70
    64
  0
VERTEX
  8
I-FLU
  5
53F
 10
115.830056
 20
577.114513
 30
-9.453016
 70
    64
  0
VERTEX
  8
I-FLU
  5
540
 10
120.103783
 20
577.114513
 30
-6.615422
 70
    64
  0
VERTEX
  8
I-FLU
  5
541
 10
77.020522
 20
577.114513
 30
-6.615422
 70
    64
  0
VERTEX
  8
I-FLU
  5
542
 10
82.172764
 20
577.114513
 30
-10.843758
 70
    64
  0
VERTEX
  8
I-FLU
  5
543
 10
88.050916
 20
577.114513
 30
-13.985695
 70
    64
  0
VERTEX
  8
I-FLU
  5
544
 10
94.429081
 20
577.114513
 30
-15.92049
 70
    64
  0
VERTEX
  8
I-FLU
  5
545
 10
101.062152
 20
577.114513
 30
-16.573791
 70
    64
  0
VERTEX
  8
I-FLU
  5
546
 10
107.695223
 20
577.114513
 30
-15.92049
 70
    64
  0
VERTEX
  8
I-FLU
  5
547
 10
114.073389
 20
577.114513
 30
-13.985695
 70
    64
  0
VERTEX
  8
I-FLU
  5
548
 10
119.95154
 20
577.114513
 30
-10.843758
 70
    64
  0
VERTEX
  8
I-FLU
  5
549
 10
125.103783
 20
577.114513
 30
-6.615422
 70
    64
  0
SEQEND
  8
I-FLU
  5
54A
  0
POLYLINE
  8
I-FLU
  5
54B
 66
     1
 10
0.0
 20
0.0
 30
0.0
 70
    16
 71
     2
 72
     9
  0
VERTEX
  8
I-FLU
  5
54C
 10
82.020522
 20
592.114513
 30
-6.615422
 70
    64
  0
VERTEX
  8
I-FLU
  5
54D
 10
86.294249
 20
592.114513
 30
-9.453016
 70
    64
  0
VERTEX
  8
I-FLU
  5
54E
 10
90.981169
 20
592.114513
 30
-11.538554
 70
    64
  0
VERTEX
  8
I-FLU
  5
54F
 10
95.950146
 20
592.114513
 30
-12.813683
 70
    64
  0
VERTEX
  8
I-FLU
  5
550
 10
101.062152
 20
592.114513
 30
-13.242728
 70
    64
  0
VERTEX
  8
I-FLU
  5
551
 10
106.174159
 20
592.114513
 30
-12.813683
 70
    64
  0
VERTEX
  8
I-FLU
  5
552
 10
111.143136
 20
592.114513
 30
-11.538554
 70
    64
  0
VERTEX
  8
I-FLU
  5
553
 10
115.830056
 20
592.114513
 30
-9.453016
 70
    64
  0
VERTEX
  8
I-FLU
  5
554
 10
120.103783
 20
592.114513
 30
-6.615422
 70
    64
  0
VERTEX
  8
I-FLU
  5
555
 10
77.020522
 20
592.114513
 30
-6.615422
 70
    64
  0
VERTEX
  8
I-FLU
  5
556
 10
82.172764
 20
592.114513
 30
-10.843758
 70
    64
  0
VERTEX
  8
I-FLU
  5
557
 10
88.050916
 20
592.114513
 30
-13.985695
 70
    64
  0
VERTEX
  8
I-FLU
  5
558
 10
94.429081
 20
592.114513
 30
-15.92049
 70
    64
  0
VERTEX
  8
I-FLU
  5
559
 10
101.062152
 20
592.114513
 30
-16.573791
 70
    64
  0
VERTEX
  8
I-FLU
  5
55A
 10
107.695223
 20
592.114513
 30
-15.92049
 70
    64
  0
VERTEX
  8
I-FLU
  5
55B
 10
114.073389
 20
592.114513
 30
-13.985695
 70
    64
  0
VERTEX
  8
I-FLU
  5
55C
 10
119.95154
 20
592.114513
 30
-10.843758
 70
    64
  0
VERTEX
  8
I-FLU
  5
55D
 10
125.103783
 20
592.114513
 30
-6.615422
 70
    64
  0
SEQEND
  8
I-FLU
  5
55E
  0
POLYLINE
  8
I-FLU
  5
55F
 66
     1
 10
0.0
 20
0.0
 30
0.0
 70
    16
 71
     2
 72
     9
  0
VERTEX
  8
I-FLU
  5
560
 10
82.020522
 20
607.114513
 30
-6.615422
 70
    64
  0
VERTEX
  8
I-FLU
  5
561
 10
86.294249
 20
607.114513
 30
-9.453016
 70
    64
  0
VERTEX
  8
I-FLU
  5
562
 10
90.981169
 20
607.114513
 30
-11.538554
 70
    64
  0
VERTEX
  8
I-FLU
  5
563
 10
95.950146
 20
607.114513
 30
-12.813683
 70
    64
  0
VERTEX
  8
I-FLU
  5
564
 10
101.062152
 20
607.114513
 30
-13.242728
 70
    64
  0
VERTEX
  8
I-FLU
  5
565
 10
106.174159
 20
607.114513
 30
-12.813683
 70
    64
  0
VERTEX
  8
I-FLU
  5
566
 10
111.143136
 20
607.114513
 30
-11.538554
 70
    64
  0
VERTEX
  8
I-FLU
  5
567
 10
115.830056
 20
607.114513
 30
-9.453016
 70
    64
  0
VERTEX
  8
I-FLU
  5
568
 10
120.103783
 20
607.114513
 30
-6.615422
 70
    64
  0
VERTEX
  8
I-FLU
  5
569
 10
77.020522
 20
607.114513
 30
-6.615422
 70
    64
  0
VERTEX
  8
I-FLU
  5
56A
 10
82.172764
 20
607.114513
 30
-10.843758
 70
    64
  0
VERTEX
  8
I-FLU
  5
56B
 10
88.050916
 20
607.114513
 30
-13.985695
 70
    64
  0
VERTEX
  8
I-FLU
  5
56C
 10
94.429081
 20
607.114513
 30
-15.92049
 70
    64
  0
VERTEX
  8
I-FLU
  5
56D
 10
101.062152
 20
607.114513
 30
-16.573791
 70
    64
  0
VERTEX
  8
I-FLU
  5
56E
 10
107.695223
 20
607.114513
 30
-15.92049
 70
    64
  0
VERTEX
  8
I-FLU
  5
56F
 10
114.073389
 20
607.114513
 30
-13.985695
 70
    64
  0
VERTEX
  8
I-FLU
  5
570
 10
119.95154
 20
607.114513
 30
-10.843758
 70
    64
  0
VERTEX
  8
I-FLU
  5
571
 10
125.103783
 20
607.114513
 30
-6.615422
 70
    64
  0
SEQEND
  8
I-FLU
  5
572
  0
POLYLINE
  8
I-FLU
  5
573
 66
     1
 10
0.0
 20
0.0
 30
0.0
 70
    16
 71
     2
 72
     9
  0
VERTEX
  8
I-FLU
  5
574
 10
82.020522
 20
622.114513
 30
-6.615422
 70
    64
  0
VERTEX
  8
I-FLU
  5
575
 10
86.294249
 20
622.114513
 30
-9.453016
 70
    64
  0
VERTEX
  8
I-FLU
  5
576
 10
90.981169
 20
622.114513
 30
-11.538554
 70
    64
  0
VERTEX
  8
I-FLU
  5
577
 10
95.950146
 20
622.114513
 30
-12.813683
 70
    64
  0
VERTEX
  8
I-FLU
  5
578
 10
101.062152
 20
622.114513
 30
-13.242728
 70
    64
  0
VERTEX
  8
I-FLU
  5
579
 10
106.174159
 20
622.114513
 30
-12.813683
 70
    64
  0
VERTEX
  8
I-FLU
  5
57A
 10
111.143136
 20
622.114513
 30
-11.538554
 70
    64
  0
VERTEX
  8
I-FLU
  5
57B
 10
115.830056
 20
622.114513
 30
-9.453016
 70
    64
  0
VERTEX
  8
I-FLU
  5
57C
 10
120.103783
 20
622.114513
 30
-6.615422
 70
    64
  0
VERTEX
  8
I-FLU
  5
57D
 10
77.020522
 20
622.114513
 30
-6.615422
 70
    64
  0
VERTEX
  8
I-FLU
  5
57E
 10
82.172764
 20
622.114513
 30
-10.843758
 70
    64
  0
VERTEX
  8
I-FLU
  5
57F
 10
88.050916
 20
622.114513
 30
-13.985695
 70
    64
  0
VERTEX
  8
I-FLU
  5
580
 10
94.429081
 20
622.114513
 30
-15.92049
 70
    64
  0
VERTEX
  8
I-FLU
  5
581
 10
101.062152
 20
622.114513
 30
-16.573791
 70
    64
  0
VERTEX
  8
I-FLU
  5
582
 10
107.695223
 20
622.114513
 30
-15.92049
 70
    64
  0
VERTEX
  8
I-FLU
  5
583
 10
114.073389
 20
622.114513
 30
-13.985695
 70
    64
  0
VERTEX
  8
I-FLU
  5
584
 10
119.95154
 20
622.114513
 30
-10.843758
 70
    64
  0
VERTEX
  8
I-FLU
  5
585
 10
125.103783
 20
622.114513
 30
-6.615422
 70
    64
  0
SEQEND
  8
I-FLU
  5
586
  0
POLYLINE
  8
I-FLU
  5
587
 66
     1
 10
0.0
 20
0.0
 30
0.0
 70
    16
 71
     2
 72
     9
  0
VERTEX
  8
I-FLU
  5
588
 10
82.020522
 20
637.114513
 30
-6.615422
 70
    64
  0
VERTEX
  8
I-FLU
  5
589
 10
86.294249
 20
637.114513
 30
-9.453016
 70
    64
  0
VERTEX
  8
I-FLU
  5
58A
 10
90.981169
 20
637.114513
 30
-11.538554
 70
    64
  0
VERTEX
  8
I-FLU
  5
58B
 10
95.950146
 20
637.114513
 30
-12.813683
 70
    64
  0
VERTEX
  8
I-FLU
  5
58C
 10
101.062152
 20
637.114513
 30
-13.242728
 70
    64
  0
VERTEX
  8
I-FLU
  5
58D
 10
106.174159
 20
637.114513
 30
-12.813683
 70
    64
  0
VERTEX
  8
I-FLU
  5
58E
 10
111.143136
 20
637.114513
 30
-11.538554
 70
    64
  0
VERTEX
  8
I-FLU
  5
58F
 10
115.830056
 20
637.114513
 30
-9.453016
 70
    64
  0
VERTEX
  8
I-FLU
  5
590
 10
120.103783
 20
637.114513
 30
-6.615422
 70
    64
  0
VERTEX
  8
I-FLU
  5
591
 10
77.020522
 20
637.114513
 30
-6.615422
 70
    64
  0
VERTEX
  8
I-FLU
  5
592
 10
82.172764
 20
637.114513
 30
-10.843758
 70
    64
  0
VERTEX
  8
I-FLU
  5
593
 10
88.050916
 20
637.114513
 30
-13.985695
 70
    64
  0
VERTEX
  8
I-FLU
  5
594
 10
94.429081
 20
637.114513
 30
-15.92049
 70
    64
  0
VERTEX
  8
I-FLU
  5
595
 10
101.062152
 20
637.114513
 30
-16.573791
 70
    64
  0
VERTEX
  8
I-FLU
  5
596
 10
107.695223
 20
637.114513
 30
-15.92049
 70
    64
  0
VERTEX
  8
I-FLU
  5
597
 10
114.073389
 20
637.114513
 30
-13.985695
 70
    64
  0
VERTEX
  8
I-FLU
  5
598
 10
119.95154
 20
637.114513
 30
-10.843758
 70
    64
  0
VERTEX
  8
I-FLU
  5
599
 10
125.103783
 20
637.114513
 30
-6.615422
 70
    64
  0
SEQEND
  8
I-FLU
  5
59A
  0
POLYLINE
  8
I-FLU
  5
59B
 66
     1
 10
0.0
 20
0.0
 30
0.0
 70
    16
 71
     2
 72
     9
  0
VERTEX
  8
I-FLU
  5
59C
 10
82.020522
 20
652.114513
 30
-6.615422
 70
    64
  0
VERTEX
  8
I-FLU
  5
59D
 10
86.294249
 20
652.114513
 30
-9.453016
 70
    64
  0
VERTEX
  8
I-FLU
  5
59E
 10
90.981169
 20
652.114513
 30
-11.538554
 70
    64
  0
VERTEX
  8
I-FLU
  5
59F
 10
95.950146
 20
652.114513
 30
-12.813683
 70
    64
  0
VERTEX
  8
I-FLU
  5
5A0
 10
101.062152
 20
652.114513
 30
-13.242728
 70
    64
  0
VERTEX
  8
I-FLU
  5
5A1
 10
106.174159
 20
652.114513
 30
-12.813683
 70
    64
  0
VERTEX
  8
I-FLU
  5
5A2
 10
111.143136
 20
652.114513
 30
-11.538554
 70
    64
  0
VERTEX
  8
I-FLU
  5
5A3
 10
115.830056
 20
652.114513
 30
-9.453016
 70
    64
  0
VERTEX
  8
I-FLU
  5
5A4
 10
120.103783
 20
652.114513
 30
-6.615422
 70
    64
  0
VERTEX
  8
I-FLU
  5
5A5
 10
77.020522
 20
652.114513
 30
-6.615422
 70
    64
  0
VERTEX
  8
I-FLU
  5
5A6
 10
82.172764
 20
652.114513
 30
-10.843758
 70
    64
  0
VERTEX
  8
I-FLU
  5
5A7
 10
88.050916
 20
652.114513
 30
-13.985695
 70
    64
  0
VERTEX
  8
I-FLU
  5
5A8
 10
94.429081
 20
652.114513
 30
-15.92049
 70
    64
  0
VERTEX
  8
I-FLU
  5
5A9
 10
101.062152
 20
652.114513
 30
-16.573791
 70
    64
  0
VERTEX
  8
I-FLU
  5
5AA
 10
107.695223
 20
652.114513
 30
-15.92049
 70
    64
  0
VERTEX
  8
I-FLU
  5
5AB
 10
114.073389
 20
652.114513
 30
-13.985695
 70
    64
  0
VERTEX
  8
I-FLU
  5
5AC
 10
119.95154
 20
652.114513
 30
-10.843758
 70
    64
  0
VERTEX
  8
I-FLU
  5
5AD
 10
125.103783
 20
652.114513
 30
-6.615422
 70
    64
  0
SEQEND
  8
I-FLU
  5
5AE
  0
POLYLINE
  8
I-FLU
  5
5AF
 66
     1
 10
0.0
 20
0.0
 30
0.0
 70
    16
 71
     2
 72
     9
  0
VERTEX
  8
I-FLU
  5
5B0
 10
82.020522
 20
667.114513
 30
-6.615422
 70
    64
  0
VERTEX
  8
I-FLU
  5
5B1
 10
86.294249
 20
667.114513
 30
-9.453016
 70
    64
  0
VERTEX
  8
I-FLU
  5
5B2
 10
90.981169
 20
667.114513
 30
-11.538554
 70
    64
  0
VERTEX
  8
I-FLU
  5
5B3
 10
95.950146
 20
667.114513
 30
-12.813683
 70
    64
  0
VERTEX
  8
I-FLU
  5
5B4
 10
101.062152
 20
667.114513
 30
-13.242728
 70
    64
  0
VERTEX
  8
I-FLU
  5
5B5
 10
106.174159
 20
667.114513
 30
-12.813683
 70
    64
  0
VERTEX
  8
I-FLU
  5
5B6
 10
111.143136
 20
667.114513
 30
-11.538554
 70
    64
  0
VERTEX
  8
I-FLU
  5
5B7
 10
115.830056
 20
667.114513
 30
-9.453016
 70
    64
  0
VERTEX
  8
I-FLU
  5
5B8
 10
120.103783
 20
667.114513
 30
-6.615422
 70
    64
  0
VERTEX
  8
I-FLU
  5
5B9
 10
77.020522
 20
667.114513
 30
-6.615422
 70
    64
  0
VERTEX
  8
I-FLU
  5
5BA
 10
82.172764
 20
667.114513
 30
-10.843758
 70
    64
  0
VERTEX
  8
I-FLU
  5
5BB
 10
88.050916
 20
667.114513
 30
-13.985695
 70
    64
  0
VERTEX
  8
I-FLU
  5
5BC
 10
94.429081
 20
667.114513
 30
-15.92049
 70
    64
  0
VERTEX
  8
I-FLU
  5
5BD
 10
101.062152
 20
667.114513
 30
-16.573791
 70
    64
  0
VERTEX
  8
I-FLU
  5
5BE
 10
107.695223
 20
667.114513
 30
-15.92049
 70
    64
  0
VERTEX
  8
I-FLU
  5
5BF
 10
114.073389
 20
667.114513
 30
-13.985695
 70
    64
  0
VERTEX
  8
I-FLU
  5
5C0
 10
119.95154
 20
667.114513
 30
-10.843758
 70
    64
  0
VERTEX
  8
I-FLU
  5
5C1
 10
125.103783
 20
667.114513
 30
-6.615422
 70
    64
  0
SEQEND
  8
I-FLU
  5
5C2
  0
POLYLINE
  8
I-FLU
  5
5C3
 66
     1
 10
0.0
 20
0.0
 30
0.0
 70
    16
 71
     2
 72
     9
  0
VERTEX
  8
I-FLU
  5
5C4
 10
82.020522
 20
682.114513
 30
-6.615422
 70
    64
  0
VERTEX
  8
I-FLU
  5
5C5
 10
86.294249
 20
682.114513
 30
-9.453016
 70
    64
  0
VERTEX
  8
I-FLU
  5
5C6
 10
90.981169
 20
682.114513
 30
-11.538554
 70
    64
  0
VERTEX
  8
I-FLU
  5
5C7
 10
95.950146
 20
682.114513
 30
-12.813683
 70
    64
  0
VERTEX
  8
I-FLU
  5
5C8
 10
101.062152
 20
682.114513
 30
-13.242728
 70
    64
  0
VERTEX
  8
I-FLU
  5
5C9
 10
106.174159
 20
682.114513
 30
-12.813683
 70
    64
  0
VERTEX
  8
I-FLU
  5
5CA
 10
111.143136
 20
682.114513
 30
-11.538554
 70
    64
  0
VERTEX
  8
I-FLU
  5
5CB
 10
115.830056
 20
682.114513
 30
-9.453016
 70
    64
  0
VERTEX
  8
I-FLU
  5
5CC
 10
120.103783
 20
682.114513
 30
-6.615422
 70
    64
  0
VERTEX
  8
I-FLU
  5
5CD
 10
77.020522
 20
682.114513
 30
-6.615422
 70
    64
  0
VERTEX
  8
I-FLU
  5
5CE
 10
82.172764
 20
682.114513
 30
-10.843758
 70
    64
  0
VERTEX
  8
I-FLU
  5
5CF
 10
88.050916
 20
682.114513
 30
-13.985695
 70
    64
  0
VERTEX
  8
I-FLU
  5
5D0
 10
94.429081
 20
682.114513
 30
-15.92049
 70
    64
  0
VERTEX
  8
I-FLU
  5
5D1
 10
101.062152
 20
682.114513
 30
-16.573791
 70
    64
  0
VERTEX
  8
I-FLU
  5
5D2
 10
107.695223
 20
682.114513
 30
-15.92049
 70
    64
  0
VERTEX
  8
I-FLU
  5
5D3
 10
114.073389
 20
682.114513
 30
-13.985695
 70
    64
  0
VERTEX
  8
I-FLU
  5
5D4
 10
119.95154
 20
682.114513
 30
-10.843758
 70
    64
  0
VERTEX
  8
I-FLU
  5
5D5
 10
125.103783
 20
682.114513
 30
-6.615422
 70
    64
  0
SEQEND
  8
I-FLU
  5
5D6
  0
POLYLINE
  8
I-FLU
  5
5D7
 66
     1
 10
0.0
 20
0.0
 30
0.0
 70
    16
 71
     2
 72
     9
  0
VERTEX
  8
I-FLU
  5
5D8
 10
82.020522
 20
697.114513
 30
-6.615422
 70
    64
  0
VERTEX
  8
I-FLU
  5
5D9
 10
86.294249
 20
697.114513
 30
-9.453016
 70
    64
  0
VERTEX
  8
I-FLU
  5
5DA
 10
90.981169
 20
697.114513
 30
-11.538554
 70
    64
  0
VERTEX
  8
I-FLU
  5
5DB
 10
95.950146
 20
697.114513
 30
-12.813683
 70
    64
  0
VERTEX
  8
I-FLU
  5
5DC
 10
101.062152
 20
697.114513
 30
-13.242728
 70
    64
  0
VERTEX
  8
I-FLU
  5
5DD
 10
106.174159
 20
697.114513
 30
-12.813683
 70
    64
  0
VERTEX
  8
I-FLU
  5
5DE
 10
111.143136
 20
697.114513
 30
-11.538554
 70
    64
  0
VERTEX
  8
I-FLU
  5
5DF
 10
115.830056
 20
697.114513
 30
-9.453016
 70
    64
  0
VERTEX
  8
I-FLU
  5
5E0
 10
120.103783
 20
697.114513
 30
-6.615422
 70
    64
  0
VERTEX
  8
I-FLU
  5
5E1
 10
77.020522
 20
697.114513
 30
-6.615422
 70
    64
  0
VERTEX
  8
I-FLU
  5
5E2
 10
82.172764
 20
697.114513
 30
-10.843758
 70
    64
  0
VERTEX
  8
I-FLU
  5
5E3
 10
88.050916
 20
697.114513
 30
-13.985695
 70
    64
  0
VERTEX
  8
I-FLU
  5
5E4
 10
94.429081
 20
697.114513
 30
-15.92049
 70
    64
  0
VERTEX
  8
I-FLU
  5
5E5
 10
101.062152
 20
697.114513
 30
-16.573791
 70
    64
  0
VERTEX
  8
I-FLU
  5
5E6
 10
107.695223
 20
697.114513
 30
-15.92049
 70
    64
  0
VERTEX
  8
I-FLU
  5
5E7
 10
114.073389
 20
697.114513
 30
-13.985695
 70
    64
  0
VERTEX
  8
I-FLU
  5
5E8
 10
119.95154
 20
697.114513
 30
-10.843758
 70
    64
  0
VERTEX
  8
I-FLU
  5
5E9
 10
125.103783
 20
697.114513
 30
-6.615422
 70
    64
  0
SEQEND
  8
I-FLU
  5
5EA
  0
POLYLINE
  8
I-FLU
  5
5EB
 66
     1
 10
0.0
 20
0.0
 30
0.0
 70
    16
 71
     2
 72
     9
  0
VERTEX
  8
I-FLU
  5
5EC
 10
82.020522
 20
712.114513
 30
-6.615422
 70
    64
  0
VERTEX
  8
I-FLU
  5
5ED
 10
86.294249
 20
712.114513
 30
-9.453016
 70
    64
  0
VERTEX
  8
I-FLU
  5
5EE
 10
90.981169
 20
712.114513
 30
-11.538554
 70
    64
  0
VERTEX
  8
I-FLU
  5
5EF
 10
95.950146
 20
712.114513
 30
-12.813683
 70
    64
  0
VERTEX
  8
I-FLU
  5
5F0
 10
101.062152
 20
712.114513
 30
-13.242728
 70
    64
  0
VERTEX
  8
I-FLU
  5
5F1
 10
106.174159
 20
712.114513
 30
-12.813683
 70
    64
  0
VERTEX
  8
I-FLU
  5
5F2
 10
111.143136
 20
712.114513
 30
-11.538554
 70
    64
  0
VERTEX
  8
I-FLU
  5
5F3
 10
115.830056
 20
712.114513
 30
-9.453016
 70
    64
  0
VERTEX
  8
I-FLU
  5
5F4
 10
120.103783
 20
712.114513
 30
-6.615422
 70
    64
  0
VERTEX
  8
I-FLU
  5
5F5
 10
77.020522
 20
712.114513
 30
-6.615422
 70
    64
  0
VERTEX
  8
I-FLU
  5
5F6
 10
82.172764
 20
712.114513
 30
-10.843758
 70
    64
  0
VERTEX
  8
I-FLU
  5
5F7
 10
88.050916
 20
712.114513
 30
-13.985695
 70
    64
  0
VERTEX
  8
I-FLU
  5
5F8
 10
94.429081
 20
712.114513
 30
-15.92049
 70
    64
  0
VERTEX
  8
I-FLU
  5
5F9
 10
101.062152
 20
712.114513
 30
-16.573791
 70
    64
  0
VERTEX
  8
I-FLU
  5
5FA
 10
107.695223
 20
712.114513
 30
-15.92049
 70
    64
  0
VERTEX
  8
I-FLU
  5
5FB
 10
114.073389
 20
712.114513
 30
-13.985695
 70
    64
  0
VERTEX
  8
I-FLU
  5
5FC
 10
119.95154
 20
712.114513
 30
-10.843758
 70
    64
  0
VERTEX
  8
I-FLU
  5
5FD
 10
125.103783
 20
712.114513
 30
-6.615422
 70
    64
  0
SEQEND
  8
I-FLU
  5
5FE
  0
POLYLINE
  8
I-FLU
  5
5FF
 66
     1
 10
0.0
 20
0.0
 30
0.0
 70
    16
 71
     2
 72
     9
  0
VERTEX
  8
I-FLU
  5
600
 10
82.020522
 20
727.114513
 30
-6.615422
 70
    64
  0
VERTEX
  8
I-FLU
  5
601
 10
86.294249
 20
727.114513
 30
-9.453016
 70
    64
  0
VERTEX
  8
I-FLU
  5
602
 10
90.981169
 20
727.114513
 30
-11.538554
 70
    64
  0
VERTEX
  8
I-FLU
  5
603
 10
95.950146
 20
727.114513
 30
-12.813683
 70
    64
  0
VERTEX
  8
I-FLU
  5
604
 10
101.062152
 20
727.114513
 30
-13.242728
 70
    64
  0
VERTEX
  8
I-FLU
  5
605
 10
106.174159
 20
727.114513
 30
-12.813683
 70
    64
  0
VERTEX
  8
I-FLU
  5
606
 10
111.143136
 20
727.114513
 30
-11.538554
 70
    64
  0
VERTEX
  8
I-FLU
  5
607
 10
115.830056
 20
727.114513
 30
-9.453016
 70
    64
  0
VERTEX
  8
I-FLU
  5
608
 10
120.103783
 20
727.114513
 30
-6.615422
 70
    64
  0
VERTEX
  8
I-FLU
  5
609
 10
77.020522
 20
727.114513
 30
-6.615422
 70
    64
  0
VERTEX
  8
I-FLU
  5
60A
 10
82.172764
 20
727.114513
 30
-10.843758
 70
    64
  0
VERTEX
  8
I-FLU
  5
60B
 10
88.050916
 20
727.114513
 30
-13.985695
 70
    64
  0
VERTEX
  8
I-FLU
  5
60C
 10
94.429081
 20
727.114513
 30
-15.92049
 70
    64
  0
VERTEX
  8
I-FLU
  5
60D
 10
101.062152
 20
727.114513
 30
-16.573791
 70
    64
  0
VERTEX
  8
I-FLU
  5
60E
 10
107.695223
 20
727.114513
 30
-15.92049
 70
    64
  0
VERTEX
  8
I-FLU
  5
60F
 10
114.073389
 20
727.114513
 30
-13.985695
 70
    64
  0
VERTEX
  8
I-FLU
  5
610
 10
119.95154
 20
727.114513
 30
-10.843758
 70
    64
  0
VERTEX
  8
I-FLU
  5
611
 10
125.103783
 20
727.114513
 30
-6.615422
 70
    64
  0
SEQEND
  8
I-FLU
  5
612
  0
POLYLINE
  8
I-FLU
  5
613
 66
     1
 10
0.0
 20
0.0
 30
0.0
 70
    16
 71
     2
 72
     9
  0
VERTEX
  8
I-FLU
  5
614
 10
82.020522
 20
742.114513
 30
-6.615422
 70
    64
  0
VERTEX
  8
I-FLU
  5
615
 10
86.294249
 20
742.114513
 30
-9.453016
 70
    64
  0
VERTEX
  8
I-FLU
  5
616
 10
90.981169
 20
742.114513
 30
-11.538554
 70
    64
  0
VERTEX
  8
I-FLU
  5
617
 10
95.950146
 20
742.114513
 30
-12.813683
 70
    64
  0
VERTEX
  8
I-FLU
  5
618
 10
101.062152
 20
742.114513
 30
-13.242728
 70
    64
  0
VERTEX
  8
I-FLU
  5
619
 10
106.174159
 20
742.114513
 30
-12.813683
 70
    64
  0
VERTEX
  8
I-FLU
  5
61A
 10
111.143136
 20
742.114513
 30
-11.538554
 70
    64
  0
VERTEX
  8
I-FLU
  5
61B
 10
115.830056
 20
742.114513
 30
-9.453016
 70
    64
  0
VERTEX
  8
I-FLU
  5
61C
 10
120.103783
 20
742.114513
 30
-6.615422
 70
    64
  0
VERTEX
  8
I-FLU
  5
61D
 10
77.020522
 20
742.114513
 30
-6.615422
 70
    64
  0
VERTEX
  8
I-FLU
  5
61E
 10
82.172764
 20
742.114513
 30
-10.843758
 70
    64
  0
VERTEX
  8
I-FLU
  5
61F
 10
88.050916
 20
742.114513
 30
-13.985695
 70
    64
  0
VERTEX
  8
I-FLU
  5
620
 10
94.429081
 20
742.114513
 30
-15.92049
 70
    64
  0
VERTEX
  8
I-FLU
  5
621
 10
101.062152
 20
742.114513
 30
-16.573791
 70
    64
  0
VERTEX
  8
I-FLU
  5
622
 10
107.695223
 20
742.114513
 30
-15.92049
 70
    64
  0
VERTEX
  8
I-FLU
  5
623
 10
114.073389
 20
742.114513
 30
-13.985695
 70
    64
  0
VERTEX
  8
I-FLU
  5
624
 10
119.95154
 20
742.114513
 30
-10.843758
 70
    64
  0
VERTEX
  8
I-FLU
  5
625
 10
125.103783
 20
742.114513
 30
-6.615422
 70
    64
  0
SEQEND
  8
I-FLU
  5
626
  0
POLYLINE
  8
I-FLU
  5
627
 66
     1
 10
0.0
 20
0.0
 30
0.0
 70
    16
 71
     2
 72
     9
  0
VERTEX
  8
I-FLU
  5
628
 10
82.020522
 20
757.114513
 30
-6.615422
 70
    64
  0
VERTEX
  8
I-FLU
  5
629
 10
86.294249
 20
757.114513
 30
-9.453016
 70
    64
  0
VERTEX
  8
I-FLU
  5
62A
 10
90.981169
 20
757.114513
 30
-11.538554
 70
    64
  0
VERTEX
  8
I-FLU
  5
62B
 10
95.950146
 20
757.114513
 30
-12.813683
 70
    64
  0
VERTEX
  8
I-FLU
  5
62C
 10
101.062152
 20
757.114513
 30
-13.242728
 70
    64
  0
VERTEX
  8
I-FLU
  5
62D
 10
106.174159
 20
757.114513
 30
-12.813683
 70
    64
  0
VERTEX
  8
I-FLU
  5
62E
 10
111.143136
 20
757.114513
 30
-11.538554
 70
    64
  0
VERTEX
  8
I-FLU
  5
62F
 10
115.830056
 20
757.114513
 30
-9.453016
 70
    64
  0
VERTEX
  8
I-FLU
  5
630
 10
120.103783
 20
757.114513
 30
-6.615422
 70
    64
  0
VERTEX
  8
I-FLU
  5
631
 10
77.020522
 20
757.114513
 30
-6.615422
 70
    64
  0
VERTEX
  8
I-FLU
  5
632
 10
82.172764
 20
757.114513
 30
-10.843758
 70
    64
  0
VERTEX
  8
I-FLU
  5
633
 10
88.050916
 20
757.114513
 30
-13.985695
 70
    64
  0
VERTEX
  8
I-FLU
  5
634
 10
94.429081
 20
757.114513
 30
-15.92049
 70
    64
  0
VERTEX
  8
I-FLU
  5
635
 10
101.062152
 20
757.114513
 30
-16.573791
 70
    64
  0
VERTEX
  8
I-FLU
  5
636
 10
107.695223
 20
757.114513
 30
-15.92049
 70
    64
  0
VERTEX
  8
I-FLU
  5
637
 10
114.073389
 20
757.114513
 30
-13.985695
 70
    64
  0
VERTEX
  8
I-FLU
  5
638
 10
119.95154
 20
757.114513
 30
-10.843758
 70
    64
  0
VERTEX
  8
I-FLU
  5
639
 10
125.103783
 20
757.114513
 30
-6.615422
 70
    64
  0
SEQEND
  8
I-FLU
  5
63A
  0
POLYLINE
  8
I-FLU
  5
63B
 66
     1
 10
0.0
 20
0.0
 30
0.0
 70
    16
 71
     2
 72
     9
  0
VERTEX
  8
I-FLU
  5
63C
 10
82.020522
 20
772.114513
 30
-6.615422
 70
    64
  0
VERTEX
  8
I-FLU
  5
63D
 10
86.294249
 20
772.114513
 30
-9.453016
 70
    64
  0
VERTEX
  8
I-FLU
  5
63E
 10
90.981169
 20
772.114513
 30
-11.538554
 70
    64
  0
VERTEX
  8
I-FLU
  5
63F
 10
95.950146
 20
772.114513
 30
-12.813683
 70
    64
  0
VERTEX
  8
I-FLU
  5
640
 10
101.062152
 20
772.114513
 30
-13.242728
 70
    64
  0
VERTEX
  8
I-FLU
  5
641
 10
106.174159
 20
772.114513
 30
-12.813683
 70
    64
  0
VERTEX
  8
I-FLU
  5
642
 10
111.143136
 20
772.114513
 30
-11.538554
 70
    64
  0
VERTEX
  8
I-FLU
  5
643
 10
115.830056
 20
772.114513
 30
-9.453016
 70
    64
  0
VERTEX
  8
I-FLU
  5
644
 10
120.103783
 20
772.114513
 30
-6.615422
 70
    64
  0
VERTEX
  8
I-FLU
  5
645
 10
77.020522
 20
772.114513
 30
-6.615422
 70
    64
  0
VERTEX
  8
I-FLU
  5
646
 10
82.172764
 20
772.114513
 30
-10.843758
 70
    64
  0
VERTEX
  8
I-FLU
  5
647
 10
88.050916
 20
772.114513
 30
-13.985695
 70
    64
  0
VERTEX
  8
I-FLU
  5
648
 10
94.429081
 20
772.114513
 30
-15.92049
 70
    64
  0
VERTEX
  8
I-FLU
  5
649
 10
101.062152
 20
772.114513
 30
-16.573791
 70
    64
  0
VERTEX
  8
I-FLU
  5
64A
 10
107.695223
 20
772.114513
 30
-15.92049
 70
    64
  0
VERTEX
  8
I-FLU
  5
64B
 10
114.073389
 20
772.114513
 30
-13.985695
 70
    64
  0
VERTEX
  8
I-FLU
  5
64C
 10
119.95154
 20
772.114513
 30
-10.843758
 70
    64
  0
VERTEX
  8
I-FLU
  5
64D
 10
125.103783
 20
772.114513
 30
-6.615422
 70
    64
  0
SEQEND
  8
I-FLU
  5
64E
  0
POLYLINE
  8
I-FLU
  5
64F
 66
     1
 10
0.0
 20
0.0
 30
0.0
 70
    16
 71
     2
 72
     9
  0
VERTEX
  8
I-FLU
  5
650
 10
82.020522
 20
787.114513
 30
-6.615422
 70
    64
  0
VERTEX
  8
I-FLU
  5
651
 10
86.294249
 20
787.114513
 30
-9.453016
 70
    64
  0
VERTEX
  8
I-FLU
  5
652
 10
90.981169
 20
787.114513
 30
-11.538554
 70
    64
  0
VERTEX
  8
I-FLU
  5
653
 10
95.950146
 20
787.114513
 30
-12.813683
 70
    64
  0
VERTEX
  8
I-FLU
  5
654
 10
101.062152
 20
787.114513
 30
-13.242728
 70
    64
  0
VERTEX
  8
I-FLU
  5
655
 10
106.174159
 20
787.114513
 30
-12.813683
 70
    64
  0
VERTEX
  8
I-FLU
  5
656
 10
111.143136
 20
787.114513
 30
-11.538554
 70
    64
  0
VERTEX
  8
I-FLU
  5
657
 10
115.830056
 20
787.114513
 30
-9.453016
 70
    64
  0
VERTEX
  8
I-FLU
  5
658
 10
120.103783
 20
787.114513
 30
-6.615422
 70
    64
  0
VERTEX
  8
I-FLU
  5
659
 10
77.020522
 20
787.114513
 30
-6.615422
 70
    64
  0
VERTEX
  8
I-FLU
  5
65A
 10
82.172764
 20
787.114513
 30
-10.843758
 70
    64
  0
VERTEX
  8
I-FLU
  5
65B
 10
88.050916
 20
787.114513
 30
-13.985695
 70
    64
  0
VERTEX
  8
I-FLU
  5
65C
 10
94.429081
 20
787.114513
 30
-15.92049
 70
    64
  0
VERTEX
  8
I-FLU
  5
65D
 10
101.062152
 20
787.114513
 30
-16.573791
 70
    64
  0
VERTEX
  8
I-FLU
  5
65E
 10
107.695223
 20
787.114513
 30
-15.92049
 70
    64
  0
VERTEX
  8
I-FLU
  5
65F
 10
114.073389
 20
787.114513
 30
-13.985695
 70
    64
  0
VERTEX
  8
I-FLU
  5
660
 10
119.95154
 20
787.114513
 30
-10.843758
 70
    64
  0
VERTEX
  8
I-FLU
  5
661
 10
125.103783
 20
787.114513
 30
-6.615422
 70
    64
  0
SEQEND
  8
I-FLU
  5
662
  0
POLYLINE
  8
I-FLU
  5
663
 66
     1
 10
0.0
 20
0.0
 30
0.0
 70
    16
 71
     2
 72
     9
  0
VERTEX
  8
I-FLU
  5
664
 10
82.020522
 20
802.114513
 30
-6.615422
 70
    64
  0
VERTEX
  8
I-FLU
  5
665
 10
86.294249
 20
802.114513
 30
-9.453016
 70
    64
  0
VERTEX
  8
I-FLU
  5
666
 10
90.981169
 20
802.114513
 30
-11.538554
 70
    64
  0
VERTEX
  8
I-FLU
  5
667
 10
95.950146
 20
802.114513
 30
-12.813683
 70
    64
  0
VERTEX
  8
I-FLU
  5
668
 10
101.062152
 20
802.114513
 30
-13.242728
 70
    64
  0
VERTEX
  8
I-FLU
  5
669
 10
106.174159
 20
802.114513
 30
-12.813683
 70
    64
  0
VERTEX
  8
I-FLU
  5
66A
 10
111.143136
 20
802.114513
 30
-11.538554
 70
    64
  0
VERTEX
  8
I-FLU
  5
66B
 10
115.830056
 20
802.114513
 30
-9.453016
 70
    64
  0
VERTEX
  8
I-FLU
  5
66C
 10
120.103783
 20
802.114513
 30
-6.615422
 70
    64
  0
VERTEX
  8
I-FLU
  5
66D
 10
77.020522
 20
802.114513
 30
-6.615422
 70
    64
  0
VERTEX
  8
I-FLU
  5
66E
 10
82.172764
 20
802.114513
 30
-10.843758
 70
    64
  0
VERTEX
  8
I-FLU
  5
66F
 10
88.050916
 20
802.114513
 30
-13.985695
 70
    64
  0
VERTEX
  8
I-FLU
  5
670
 10
94.429081
 20
802.114513
 30
-15.92049
 70
    64
  0
VERTEX
  8
I-FLU
  5
671
 10
101.062152
 20
802.114513
 30
-16.573791
 70
    64
  0
VERTEX
  8
I-FLU
  5
672
 10
107.695223
 20
802.114513
 30
-15.92049
 70
    64
  0
VERTEX
  8
I-FLU
  5
673
 10
114.073389
 20
802.114513
 30
-13.985695
 70
    64
  0
VERTEX
  8
I-FLU
  5
674
 10
119.95154
 20
802.114513
 30
-10.843758
 70
    64
  0
VERTEX
  8
I-FLU
  5
675
 10
125.103783
 20
802.114513
 30
-6.615422
 70
    64
  0
SEQEND
  8
I-FLU
  5
676
  0
POLYLINE
  8
I-FLU
  5
677
 66
     1
 10
0.0
 20
0.0
 30
0.0
 70
    16
 71
     2
 72
     9
  0
VERTEX
  8
I-FLU
  5
678
 10
82.020522
 20
817.114513
 30
-6.615422
 70
    64
  0
VERTEX
  8
I-FLU
  5
679
 10
86.294249
 20
817.114513
 30
-9.453016
 70
    64
  0
VERTEX
  8
I-FLU
  5
67A
 10
90.981169
 20
817.114513
 30
-11.538554
 70
    64
  0
VERTEX
  8
I-FLU
  5
67B
 10
95.950146
 20
817.114513
 30
-12.813683
 70
    64
  0
VERTEX
  8
I-FLU
  5
67C
 10
101.062152
 20
817.114513
 30
-13.242728
 70
    64
  0
VERTEX
  8
I-FLU
  5
67D
 10
106.174159
 20
817.114513
 30
-12.813683
 70
    64
  0
VERTEX
  8
I-FLU
  5
67E
 10
111.143136
 20
817.114513
 30
-11.538554
 70
    64
  0
VERTEX
  8
I-FLU
  5
67F
 10
115.830056
 20
817.114513
 30
-9.453016
 70
    64
  0
VERTEX
  8
I-FLU
  5
680
 10
120.103783
 20
817.114513
 30
-6.615422
 70
    64
  0
VERTEX
  8
I-FLU
  5
681
 10
77.020522
 20
817.114513
 30
-6.615422
 70
    64
  0
VERTEX
  8
I-FLU
  5
682
 10
82.172764
 20
817.114513
 30
-10.843758
 70
    64
  0
VERTEX
  8
I-FLU
  5
683
 10
88.050916
 20
817.114513
 30
-13.985695
 70
    64
  0
VERTEX
  8
I-FLU
  5
684
 10
94.429081
 20
817.114513
 30
-15.92049
 70
    64
  0
VERTEX
  8
I-FLU
  5
685
 10
101.062152
 20
817.114513
 30
-16.573791
 70
    64
  0
VERTEX
  8
I-FLU
  5
686
 10
107.695223
 20
817.114513
 30
-15.92049
 70
    64
  0
VERTEX
  8
I-FLU
  5
687
 10
114.073389
 20
817.114513
 30
-13.985695
 70
    64
  0
VERTEX
  8
I-FLU
  5
688
 10
119.95154
 20
817.114513
 30
-10.843758
 70
    64
  0
VERTEX
  8
I-FLU
  5
689
 10
125.103783
 20
817.114513
 30
-6.615422
 70
    64
  0
SEQEND
  8
I-FLU
  5
68A
  0
POLYLINE
  8
I-FLU
  5
68B
 66
     1
 10
0.0
 20
0.0
 30
0.0
 70
    16
 71
     2
 72
     9
  0
VERTEX
  8
I-FLU
  5
68C
 10
82.020522
 20
832.114513
 30
-6.615422
 70
    64
  0
VERTEX
  8
I-FLU
  5
68D
 10
86.294249
 20
832.114513
 30
-9.453016
 70
    64
  0
VERTEX
  8
I-FLU
  5
68E
 10
90.981169
 20
832.114513
 30
-11.538554
 70
    64
  0
VERTEX
  8
I-FLU
  5
68F
 10
95.950146
 20
832.114513
 30
-12.813683
 70
    64
  0
VERTEX
  8
I-FLU
  5
690
 10
101.062152
 20
832.114513
 30
-13.242728
 70
    64
  0
VERTEX
  8
I-FLU
  5
691
 10
106.174159
 20
832.114513
 30
-12.813683
 70
    64
  0
VERTEX
  8
I-FLU
  5
692
 10
111.143136
 20
832.114513
 30
-11.538554
 70
    64
  0
VERTEX
  8
I-FLU
  5
693
 10
115.830056
 20
832.114513
 30
-9.453016
 70
    64
  0
VERTEX
  8
I-FLU
  5
694
 10
120.103783
 20
832.114513
 30
-6.615422
 70
    64
  0
VERTEX
  8
I-FLU
  5
695
 10
77.020522
 20
832.114513
 30
-6.615422
 70
    64
  0
VERTEX
  8
I-FLU
  5
696
 10
82.172764
 20
832.114513
 30
-10.843758
 70
    64
  0
VERTEX
  8
I-FLU
  5
697
 10
88.050916
 20
832.114513
 30
-13.985695
 70
    64
  0
VERTEX
  8
I-FLU
  5
698
 10
94.429081
 20
832.114513
 30
-15.92049
 70
    64
  0
VERTEX
  8
I-FLU
  5
699
 10
101.062152
 20
832.114513
 30
-16.573791
 70
    64
  0
VERTEX
  8
I-FLU
  5
69A
 10
107.695223
 20
832.114513
 30
-15.92049
 70
    64
  0
VERTEX
  8
I-FLU
  5
69B
 10
114.073389
 20
832.114513
 30
-13.985695
 70
    64
  0
VERTEX
  8
I-FLU
  5
69C
 10
119.95154
 20
832.114513
 30
-10.843758
 70
    64
  0
VERTEX
  8
I-FLU
  5
69D
 10
125.103783
 20
832.114513
 30
-6.615422
 70
    64
  0
SEQEND
  8
I-FLU
  5
69E
  0
POLYLINE
  8
I-FLU
  5
69F
 66
     1
 10
0.0
 20
0.0
 30
0.0
 70
    16
 71
     2
 72
     9
  0
VERTEX
  8
I-FLU
  5
6A0
 10
82.020522
 20
847.114513
 30
-6.615422
 70
    64
  0
VERTEX
  8
I-FLU
  5
6A1
 10
86.294249
 20
847.114513
 30
-9.453016
 70
    64
  0
VERTEX
  8
I-FLU
  5
6A2
 10
90.981169
 20
847.114513
 30
-11.538554
 70
    64
  0
VERTEX
  8
I-FLU
  5
6A3
 10
95.950146
 20
847.114513
 30
-12.813683
 70
    64
  0
VERTEX
  8
I-FLU
  5
6A4
 10
101.062152
 20
847.114513
 30
-13.242728
 70
    64
  0
VERTEX
  8
I-FLU
  5
6A5
 10
106.174159
 20
847.114513
 30
-12.813683
 70
    64
  0
VERTEX
  8
I-FLU
  5
6A6
 10
111.143136
 20
847.114513
 30
-11.538554
 70
    64
  0
VERTEX
  8
I-FLU
  5
6A7
 10
115.830056
 20
847.114513
 30
-9.453016
 70
    64
  0
VERTEX
  8
I-FLU
  5
6A8
 10
120.103783
 20
847.114513
 30
-6.615422
 70
    64
  0
VERTEX
  8
I-FLU
  5
6A9
 10
77.020522
 20
847.114513
 30
-6.615422
 70
    64
  0
VERTEX
  8
I-FLU
  5
6AA
 10
82.172764
 20
847.114513
 30
-10.843758
 70
    64
  0
VERTEX
  8
I-FLU
  5
6AB
 10
88.050916
 20
847.114513
 30
-13.985695
 70
    64
  0
VERTEX
  8
I-FLU
  5
6AC
 10
94.429081
 20
847.114513
 30
-15.92049
 70
    64
  0
VERTEX
  8
I-FLU
  5
6AD
 10
101.062152
 20
847.114513
 30
-16.573791
 70
    64
  0
VERTEX
  8
I-FLU
  5
6AE
 10
107.695223
 20
847.114513
 30
-15.92049
 70
    64
  0
VERTEX
  8
I-FLU
  5
6AF
 10
114.073389
 20
847.114513
 30
-13.985695
 70
    64
  0
VERTEX
  8
I-FLU
  5
6B0
 10
119.95154
 20
847.114513
 30
-10.843758
 70
    64
  0
VERTEX
  8
I-FLU
  5
6B1
 10
125.103783
 20
847.114513
 30
-6.615422
 70
    64
  0
SEQEND
  8
I-FLU
  5
6B2
  0
POLYLINE
  8
I-FLU
  5
6B3
 66
     1
 10
0.0
 20
0.0
 30
0.0
 70
    16
 71
     2
 72
     9
  0
VERTEX
  8
I-FLU
  5
6B4
 10
82.020522
 20
862.114513
 30
-6.615422
 70
    64
  0
VERTEX
  8
I-FLU
  5
6B5
 10
86.294249
 20
862.114513
 30
-9.453016
 70
    64
  0
VERTEX
  8
I-FLU
  5
6B6
 10
90.981169
 20
862.114513
 30
-11.538554
 70
    64
  0
VERTEX
  8
I-FLU
  5
6B7
 10
95.950146
 20
862.114513
 30
-12.813683
 70
    64
  0
VERTEX
  8
I-FLU
  5
6B8
 10
101.062152
 20
862.114513
 30
-13.242728
 70
    64
  0
VERTEX
  8
I-FLU
  5
6B9
 10
106.174159
 20
862.114513
 30
-12.813683
 70
    64
  0
VERTEX
  8
I-FLU
  5
6BA
 10
111.143136
 20
862.114513
 30
-11.538554
 70
    64
  0
VERTEX
  8
I-FLU
  5
6BB
 10
115.830056
 20
862.114513
 30
-9.453016
 70
    64
  0
VERTEX
  8
I-FLU
  5
6BC
 10
120.103783
 20
862.114513
 30
-6.615422
 70
    64
  0
VERTEX
  8
I-FLU
  5
6BD
 10
77.020522
 20
862.114513
 30
-6.615422
 70
    64
  0
VERTEX
  8
I-FLU
  5
6BE
 10
82.172764
 20
862.114513
 30
-10.843758
 70
    64
  0
VERTEX
  8
I-FLU
  5
6BF
 10
88.050916
 20
862.114513
 30
-13.985695
 70
    64
  0
VERTEX
  8
I-FLU
  5
6C0
 10
94.429081
 20
862.114513
 30
-15.92049
 70
    64
  0
VERTEX
  8
I-FLU
  5
6C1
 10
101.062152
 20
862.114513
 30
-16.573791
 70
    64
  0
VERTEX
  8
I-FLU
  5
6C2
 10
107.695223
 20
862.114513
 30
-15.92049
 70
    64
  0
VERTEX
  8
I-FLU
  5
6C3
 10
114.073389
 20
862.114513
 30
-13.985695
 70
    64
  0
VERTEX
  8
I-FLU
  5
6C4
 10
119.95154
 20
862.114513
 30
-10.843758
 70
    64
  0
VERTEX
  8
I-FLU
  5
6C5
 10
125.103783
 20
862.114513
 30
-6.615422
 70
    64
  0
SEQEND
  8
I-FLU
  5
6C6
  0
POLYLINE
  8
I-FLU
  5
6C7
 66
     1
 10
0.0
 20
0.0
 30
0.0
 70
    16
 71
     2
 72
     9
  0
VERTEX
  8
I-FLU
  5
6C8
 10
82.020522
 20
877.114513
 30
-6.615422
 70
    64
  0
VERTEX
  8
I-FLU
  5
6C9
 10
86.294249
 20
877.114513
 30
-9.453016
 70
    64
  0
VERTEX
  8
I-FLU
  5
6CA
 10
90.981169
 20
877.114513
 30
-11.538554
 70
    64
  0
VERTEX
  8
I-FLU
  5
6CB
 10
95.950146
 20
877.114513
 30
-12.813683
 70
    64
  0
VERTEX
  8
I-FLU
  5
6CC
 10
101.062152
 20
877.114513
 30
-13.242728
 70
    64
  0
VERTEX
  8
I-FLU
  5
6CD
 10
106.174159
 20
877.114513
 30
-12.813683
 70
    64
  0
VERTEX
  8
I-FLU
  5
6CE
 10
111.143136
 20
877.114513
 30
-11.538554
 70
    64
  0
VERTEX
  8
I-FLU
  5
6CF
 10
115.830056
 20
877.114513
 30
-9.453016
 70
    64
  0
VERTEX
  8
I-FLU
  5
6D0
 10
120.103783
 20
877.114513
 30
-6.615422
 70
    64
  0
VERTEX
  8
I-FLU
  5
6D1
 10
77.020522
 20
877.114513
 30
-6.615422
 70
    64
  0
VERTEX
  8
I-FLU
  5
6D2
 10
82.172764
 20
877.114513
 30
-10.843758
 70
    64
  0
VERTEX
  8
I-FLU
  5
6D3
 10
88.050916
 20
877.114513
 30
-13.985695
 70
    64
  0
VERTEX
  8
I-FLU
  5
6D4
 10
94.429081
 20
877.114513
 30
-15.92049
 70
    64
  0
VERTEX
  8
I-FLU
  5
6D5
 10
101.062152
 20
877.114513
 30
-16.573791
 70
    64
  0
VERTEX
  8
I-FLU
  5
6D6
 10
107.695223
 20
877.114513
 30
-15.92049
 70
    64
  0
VERTEX
  8
I-FLU
  5
6D7
 10
114.073389
 20
877.114513
 30
-13.985695
 70
    64
  0
VERTEX
  8
I-FLU
  5
6D8
 10
119.95154
 20
877.114513
 30
-10.843758
 70
    64
  0
VERTEX
  8
I-FLU
  5
6D9
 10
125.103783
 20
877.114513
 30
-6.615422
 70
    64
  0
SEQEND
  8
I-FLU
  5
6DA
  0
POLYLINE
  8
I-FLU
  5
6DB
 66
     1
 10
0.0
 20
0.0
 30
0.0
 70
    16
 71
     2
 72
     9
  0
VERTEX
  8
I-FLU
  5
6DC
 10
82.020522
 20
892.114513
 30
-6.615422
 70
    64
  0
VERTEX
  8
I-FLU
  5
6DD
 10
86.294249
 20
892.114513
 30
-9.453016
 70
    64
  0
VERTEX
  8
I-FLU
  5
6DE
 10
90.981169
 20
892.114513
 30
-11.538554
 70
    64
  0
VERTEX
  8
I-FLU
  5
6DF
 10
95.950146
 20
892.114513
 30
-12.813683
 70
    64
  0
VERTEX
  8
I-FLU
  5
6E0
 10
101.062152
 20
892.114513
 30
-13.242728
 70
    64
  0
VERTEX
  8
I-FLU
  5
6E1
 10
106.174159
 20
892.114513
 30
-12.813683
 70
    64
  0
VERTEX
  8
I-FLU
  5
6E2
 10
111.143136
 20
892.114513
 30
-11.538554
 70
    64
  0
VERTEX
  8
I-FLU
  5
6E3
 10
115.830056
 20
892.114513
 30
-9.453016
 70
    64
  0
VERTEX
  8
I-FLU
  5
6E4
 10
120.103783
 20
892.114513
 30
-6.615422
 70
    64
  0
VERTEX
  8
I-FLU
  5
6E5
 10
77.020522
 20
892.114513
 30
-6.615422
 70
    64
  0
VERTEX
  8
I-FLU
  5
6E6
 10
82.172764
 20
892.114513
 30
-10.843758
 70
    64
  0
VERTEX
  8
I-FLU
  5
6E7
 10
88.050916
 20
892.114513
 30
-13.985695
 70
    64
  0
VERTEX
  8
I-FLU
  5
6E8
 10
94.429081
 20
892.114513
 30
-15.92049
 70
    64
  0
VERTEX
  8
I-FLU
  5
6E9
 10
101.062152
 20
892.114513
 30
-16.573791
 70
    64
  0
VERTEX
  8
I-FLU
  5
6EA
 10
107.695223
 20
892.114513
 30
-15.92049
 70
    64
  0
VERTEX
  8
I-FLU
  5
6EB
 10
114.073389
 20
892.114513
 30
-13.985695
 70
    64
  0
VERTEX
  8
I-FLU
  5
6EC
 10
119.95154
 20
892.114513
 30
-10.843758
 70
    64
  0
VERTEX
  8
I-FLU
  5
6ED
 10
125.103783
 20
892.114513
 30
-6.615422
 70
    64
  0
SEQEND
  8
I-FLU
  5
6EE
  0
POLYLINE
  8
I-FLU
  5
6EF
 66
     1
 10
0.0
 20
0.0
 30
0.0
 70
    16
 71
     2
 72
     9
  0
VERTEX
  8
I-FLU
  5
6F0
 10
82.020522
 20
907.114513
 30
-6.615422
 70
    64
  0
VERTEX
  8
I-FLU
  5
6F1
 10
86.294249
 20
907.114513
 30
-9.453016
 70
    64
  0
VERTEX
  8
I-FLU
  5
6F2
 10
90.981169
 20
907.114513
 30
-11.538554
 70
    64
  0
VERTEX
  8
I-FLU
  5
6F3
 10
95.950146
 20
907.114513
 30
-12.813683
 70
    64
  0
VERTEX
  8
I-FLU
  5
6F4
 10
101.062152
 20
907.114513
 30
-13.242728
 70
    64
  0
VERTEX
  8
I-FLU
  5
6F5
 10
106.174159
 20
907.114513
 30
-12.813683
 70
    64
  0
VERTEX
  8
I-FLU
  5
6F6
 10
111.143136
 20
907.114513
 30
-11.538554
 70
    64
  0
VERTEX
  8
I-FLU
  5
6F7
 10
115.830056
 20
907.114513
 30
-9.453016
 70
    64
  0
VERTEX
  8
I-FLU
  5
6F8
 10
120.103783
 20
907.114513
 30
-6.615422
 70
    64
  0
VERTEX
  8
I-FLU
  5
6F9
 10
77.020522
 20
907.114513
 30
-6.615422
 70
    64
  0
VERTEX
  8
I-FLU
  5
6FA
 10
82.172764
 20
907.114513
 30
-10.843758
 70
    64
  0
VERTEX
  8
I-FLU
  5
6FB
 10
88.050916
 20
907.114513
 30
-13.985695
 70
    64
  0
VERTEX
  8
I-FLU
  5
6FC
 10
94.429081
 20
907.114513
 30
-15.92049
 70
    64
  0
VERTEX
  8
I-FLU
  5
6FD
 10
101.062152
 20
907.114513
 30
-16.573791
 70
    64
  0
VERTEX
  8
I-FLU
  5
6FE
 10
107.695223
 20
907.114513
 30
-15.92049
 70
    64
  0
VERTEX
  8
I-FLU
  5
6FF
 10
114.073389
 20
907.114513
 30
-13.985695
 70
    64
  0
VERTEX
  8
I-FLU
  5
700
 10
119.95154
 20
907.114513
 30
-10.843758
 70
    64
  0
VERTEX
  8
I-FLU
  5
701
 10
125.103783
 20
907.114513
 30
-6.615422
 70
    64
  0
SEQEND
  8
I-FLU
  5
702
  0
POLYLINE
  8
I-FLU
  5
703
 66
     1
 10
0.0
 20
0.0
 30
0.0
 70
    16
 71
     2
 72
     9
  0
VERTEX
  8
I-FLU
  5
704
 10
82.020522
 20
922.114513
 30
-6.615422
 70
    64
  0
VERTEX
  8
I-FLU
  5
705
 10
86.294249
 20
922.114513
 30
-9.453016
 70
    64
  0
VERTEX
  8
I-FLU
  5
706
 10
90.981169
 20
922.114513
 30
-11.538554
 70
    64
  0
VERTEX
  8
I-FLU
  5
707
 10
95.950146
 20
922.114513
 30
-12.813683
 70
    64
  0
VERTEX
  8
I-FLU
  5
708
 10
101.062152
 20
922.114513
 30
-13.242728
 70
    64
  0
VERTEX
  8
I-FLU
  5
709
 10
106.174159
 20
922.114513
 30
-12.813683
 70
    64
  0
VERTEX
  8
I-FLU
  5
70A
 10
111.143136
 20
922.114513
 30
-11.538554
 70
    64
  0
VERTEX
  8
I-FLU
  5
70B
 10
115.830056
 20
922.114513
 30
-9.453016
 70
    64
  0
VERTEX
  8
I-FLU
  5
70C
 10
120.103783
 20
922.114513
 30
-6.615422
 70
    64
  0
VERTEX
  8
I-FLU
  5
70D
 10
77.020522
 20
922.114513
 30
-6.615422
 70
    64
  0
VERTEX
  8
I-FLU
  5
70E
 10
82.172764
 20
922.114513
 30
-10.843758
 70
    64
  0
VERTEX
  8
I-FLU
  5
70F
 10
88.050916
 20
922.114513
 30
-13.985695
 70
    64
  0
VERTEX
  8
I-FLU
  5
710
 10
94.429081
 20
922.114513
 30
-15.92049
 70
    64
  0
VERTEX
  8
I-FLU
  5
711
 10
101.062152
 20
922.114513
 30
-16.573791
 70
    64
  0
VERTEX
  8
I-FLU
  5
712
 10
107.695223
 20
922.114513
 30
-15.92049
 70
    64
  0
VERTEX
  8
I-FLU
  5
713
 10
114.073389
 20
922.114513
 30
-13.985695
 70
    64
  0
VERTEX
  8
I-FLU
  5
714
 10
119.95154
 20
922.114513
 30
-10.843758
 70
    64
  0
VERTEX
  8
I-FLU
  5
715
 10
125.103783
 20
922.114513
 30
-6.615422
 70
    64
  0
SEQEND
  8
I-FLU
  5
716
  0
POLYLINE
  8
I-FLU
  5
717
 66
     1
 10
0.0
 20
0.0
 30
0.0
 70
    16
 71
     2
 72
     9
  0
VERTEX
  8
I-FLU
  5
718
 10
82.020522
 20
937.114513
 30
-6.615422
 70
    64
  0
VERTEX
  8
I-FLU
  5
719
 10
86.294249
 20
937.114513
 30
-9.453016
 70
    64
  0
VERTEX
  8
I-FLU
  5
71A
 10
90.981169
 20
937.114513
 30
-11.538554
 70
    64
  0
VERTEX
  8
I-FLU
  5
71B
 10
95.950146
 20
937.114513
 30
-12.813683
 70
    64
  0
VERTEX
  8
I-FLU
  5
71C
 10
101.062152
 20
937.114513
 30
-13.242728
 70
    64
  0
VERTEX
  8
I-FLU
  5
71D
 10
106.174159
 20
937.114513
 30
-12.813683
 70
    64
  0
VERTEX
  8
I-FLU
  5
71E
 10
111.143136
 20
937.114513
 30
-11.538554
 70
    64
  0
VERTEX
  8
I-FLU
  5
71F
 10
115.830056
 20
937.114513
 30
-9.453016
 70
    64
  0
VERTEX
  8
I-FLU
  5
720
 10
120.103783
 20
937.114513
 30
-6.615422
 70
    64
  0
VERTEX
  8
I-FLU
  5
721
 10
77.020522
 20
937.114513
 30
-6.615422
 70
    64
  0
VERTEX
  8
I-FLU
  5
722
 10
82.172764
 20
937.114513
 30
-10.843758
 70
    64
  0
VERTEX
  8
I-FLU
  5
723
 10
88.050916
 20
937.114513
 30
-13.985695
 70
    64
  0
VERTEX
  8
I-FLU
  5
724
 10
94.429081
 20
937.114513
 30
-15.92049
 70
    64
  0
VERTEX
  8
I-FLU
  5
725
 10
101.062152
 20
937.114513
 30
-16.573791
 70
    64
  0
VERTEX
  8
I-FLU
  5
726
 10
107.695223
 20
937.114513
 30
-15.92049
 70
    64
  0
VERTEX
  8
I-FLU
  5
727
 10
114.073389
 20
937.114513
 30
-13.985695
 70
    64
  0
VERTEX
  8
I-FLU
  5
728
 10
119.95154
 20
937.114513
 30
-10.843758
 70
    64
  0
VERTEX
  8
I-FLU
  5
729
 10
125.103783
 20
937.114513
 30
-6.615422
 70
    64
  0
SEQEND
  8
I-FLU
  5
72A
  0
POLYLINE
  8
I-FLU
  5
72B
 66
     1
 10
0.0
 20
0.0
 30
0.0
 70
    16
 71
     2
 72
     9
  0
VERTEX
  8
I-FLU
  5
72C
 10
82.020522
 20
952.114513
 30
-6.615422
 70
    64
  0
VERTEX
  8
I-FLU
  5
72D
 10
86.294249
 20
952.114513
 30
-9.453016
 70
    64
  0
VERTEX
  8
I-FLU
  5
72E
 10
90.981169
 20
952.114513
 30
-11.538554
 70
    64
  0
VERTEX
  8
I-FLU
  5
72F
 10
95.950146
 20
952.114513
 30
-12.813683
 70
    64
  0
VERTEX
  8
I-FLU
  5
730
 10
101.062152
 20
952.114513
 30
-13.242728
 70
    64
  0
VERTEX
  8
I-FLU
  5
731
 10
106.174159
 20
952.114513
 30
-12.813683
 70
    64
  0
VERTEX
  8
I-FLU
  5
732
 10
111.143136
 20
952.114513
 30
-11.538554
 70
    64
  0
VERTEX
  8
I-FLU
  5
733
 10
115.830056
 20
952.114513
 30
-9.453016
 70
    64
  0
VERTEX
  8
I-FLU
  5
734
 10
120.103783
 20
952.114513
 30
-6.615422
 70
    64
  0
VERTEX
  8
I-FLU
  5
735
 10
77.020522
 20
952.114513
 30
-6.615422
 70
    64
  0
VERTEX
  8
I-FLU
  5
736
 10
82.172764
 20
952.114513
 30
-10.843758
 70
    64
  0
VERTEX
  8
I-FLU
  5
737
 10
88.050916
 20
952.114513
 30
-13.985695
 70
    64
  0
VERTEX
  8
I-FLU
  5
738
 10
94.429081
 20
952.114513
 30
-15.92049
 70
    64
  0
VERTEX
  8
I-FLU
  5
739
 10
101.062152
 20
952.114513
 30
-16.573791
 70
    64
  0
VERTEX
  8
I-FLU
  5
73A
 10
107.695223
 20
952.114513
 30
-15.92049
 70
    64
  0
VERTEX
  8
I-FLU
  5
73B
 10
114.073389
 20
952.114513
 30
-13.985695
 70
    64
  0
VERTEX
  8
I-FLU
  5
73C
 10
119.95154
 20
952.114513
 30
-10.843758
 70
    64
  0
VERTEX
  8
I-FLU
  5
73D
 10
125.103783
 20
952.114513
 30
-6.615422
 70
    64
  0
SEQEND
  8
I-FLU
  5
73E
  0
POLYLINE
  8
I-FLU
  5
73F
 66
     1
 10
0.0
 20
0.0
 30
0.0
 70
    16
 71
     2
 72
     9
  0
VERTEX
  8
I-FLU
  5
740
 10
82.020522
 20
967.114513
 30
-6.615422
 70
    64
  0
VERTEX
  8
I-FLU
  5
741
 10
86.294249
 20
967.114513
 30
-9.453016
 70
    64
  0
VERTEX
  8
I-FLU
  5
742
 10
90.981169
 20
967.114513
 30
-11.538554
 70
    64
  0
VERTEX
  8
I-FLU
  5
743
 10
95.950146
 20
967.114513
 30
-12.813683
 70
    64
  0
VERTEX
  8
I-FLU
  5
744
 10
101.062152
 20
967.114513
 30
-13.242728
 70
    64
  0
VERTEX
  8
I-FLU
  5
745
 10
106.174159
 20
967.114513
 30
-12.813683
 70
    64
  0
VERTEX
  8
I-FLU
  5
746
 10
111.143136
 20
967.114513
 30
-11.538554
 70
    64
  0
VERTEX
  8
I-FLU
  5
747
 10
115.830056
 20
967.114513
 30
-9.453016
 70
    64
  0
VERTEX
  8
I-FLU
  5
748
 10
120.103783
 20
967.114513
 30
-6.615422
 70
    64
  0
VERTEX
  8
I-FLU
  5
749
 10
77.020522
 20
967.114513
 30
-6.615422
 70
    64
  0
VERTEX
  8
I-FLU
  5
74A
 10
82.172764
 20
967.114513
 30
-10.843758
 70
    64
  0
VERTEX
  8
I-FLU
  5
74B
 10
88.050916
 20
967.114513
 30
-13.985695
 70
    64
  0
VERTEX
  8
I-FLU
  5
74C
 10
94.429081
 20
967.114513
 30
-15.92049
 70
    64
  0
VERTEX
  8
I-FLU
  5
74D
 10
101.062152
 20
967.114513
 30
-16.573791
 70
    64
  0
VERTEX
  8
I-FLU
  5
74E
 10
107.695223
 20
967.114513
 30
-15.92049
 70
    64
  0
VERTEX
  8
I-FLU
  5
74F
 10
114.073389
 20
967.114513
 30
-13.985695
 70
    64
  0
VERTEX
  8
I-FLU
  5
750
 10
119.95154
 20
967.114513
 30
-10.843758
 70
    64
  0
VERTEX
  8
I-FLU
  5
751
 10
125.103783
 20
967.114513
 30
-6.615422
 70
    64
  0
SEQEND
  8
I-FLU
  5
752
  0
POLYLINE
  8
I-FLU
  5
753
 66
     1
 10
0.0
 20
0.0
 30
0.0
 70
    16
 71
     2
 72
     9
  0
VERTEX
  8
I-FLU
  5
754
 10
82.020522
 20
982.114513
 30
-6.615422
 70
    64
  0
VERTEX
  8
I-FLU
  5
755
 10
86.294249
 20
982.114513
 30
-9.453016
 70
    64
  0
VERTEX
  8
I-FLU
  5
756
 10
90.981169
 20
982.114513
 30
-11.538554
 70
    64
  0
VERTEX
  8
I-FLU
  5
757
 10
95.950146
 20
982.114513
 30
-12.813683
 70
    64
  0
VERTEX
  8
I-FLU
  5
758
 10
101.062152
 20
982.114513
 30
-13.242728
 70
    64
  0
VERTEX
  8
I-FLU
  5
759
 10
106.174159
 20
982.114513
 30
-12.813683
 70
    64
  0
VERTEX
  8
I-FLU
  5
75A
 10
111.143136
 20
982.114513
 30
-11.538554
 70
    64
  0
VERTEX
  8
I-FLU
  5
75B
 10
115.830056
 20
982.114513
 30
-9.453016
 70
    64
  0
VERTEX
  8
I-FLU
  5
75C
 10
120.103783
 20
982.114513
 30
-6.615422
 70
    64
  0
VERTEX
  8
I-FLU
  5
75D
 10
77.020522
 20
982.114513
 30
-6.615422
 70
    64
  0
VERTEX
  8
I-FLU
  5
75E
 10
82.172764
 20
982.114513
 30
-10.843758
 70
    64
  0
VERTEX
  8
I-FLU
  5
75F
 10
88.050916
 20
982.114513
 30
-13.985695
 70
    64
  0
VERTEX
  8
I-FLU
  5
760
 10
94.429081
 20
982.114513
 30
-15.92049
 70
    64
  0
VERTEX
  8
I-FLU
  5
761
 10
101.062152
 20
982.114513
 30
-16.573791
 70
    64
  0
VERTEX
  8
I-FLU
  5
762
 10
107.695223
 20
982.114513
 30
-15.92049
 70
    64
  0
VERTEX
  8
I-FLU
  5
763
 10
114.073389
 20
982.114513
 30
-13.985695
 70
    64
  0
VERTEX
  8
I-FLU
  5
764
 10
119.95154
 20
982.114513
 30
-10.843758
 70
    64
  0
VERTEX
  8
I-FLU
  5
765
 10
125.103783
 20
982.114513
 30
-6.615422
 70
    64
  0
SEQEND
  8
I-FLU
  5
766
  0
POLYLINE
  8
I-FLU
  5
767
 66
     1
 10
0.0
 20
0.0
 30
0.0
 70
    16
 71
     2
 72
     9
  0
VERTEX
  8
I-FLU
  5
768
 10
82.020522
 20
997.114513
 30
-6.615422
 70
    64
  0
VERTEX
  8
I-FLU
  5
769
 10
86.294249
 20
997.114513
 30
-9.453016
 70
    64
  0
VERTEX
  8
I-FLU
  5
76A
 10
90.981169
 20
997.114513
 30
-11.538554
 70
    64
  0
VERTEX
  8
I-FLU
  5
76B
 10
95.950146
 20
997.114513
 30
-12.813683
 70
    64
  0
VERTEX
  8
I-FLU
  5
76C
 10
101.062152
 20
997.114513
 30
-13.242728
 70
    64
  0
VERTEX
  8
I-FLU
  5
76D
 10
106.174159
 20
997.114513
 30
-12.813683
 70
    64
  0
VERTEX
  8
I-FLU
  5
76E
 10
111.143136
 20
997.114513
 30
-11.538554
 70
    64
  0
VERTEX
  8
I-FLU
  5
76F
 10
115.830056
 20
997.114513
 30
-9.453016
 70
    64
  0
VERTEX
  8
I-FLU
  5
770
 10
120.103783
 20
997.114513
 30
-6.615422
 70
    64
  0
VERTEX
  8
I-FLU
  5
771
 10
77.020522
 20
997.114513
 30
-6.615422
 70
    64
  0
VERTEX
  8
I-FLU
  5
772
 10
82.172764
 20
997.114513
 30
-10.843758
 70
    64
  0
VERTEX
  8
I-FLU
  5
773
 10
88.050916
 20
997.114513
 30
-13.985695
 70
    64
  0
VERTEX
  8
I-FLU
  5
774
 10
94.429081
 20
997.114513
 30
-15.92049
 70
    64
  0
VERTEX
  8
I-FLU
  5
775
 10
101.062152
 20
997.114513
 30
-16.573791
 70
    64
  0
VERTEX
  8
I-FLU
  5
776
 10
107.695223
 20
997.114513
 30
-15.92049
 70
    64
  0
VERTEX
  8
I-FLU
  5
777
 10
114.073389
 20
997.114513
 30
-13.985695
 70
    64
  0
VERTEX
  8
I-FLU
  5
778
 10
119.95154
 20
997.114513
 30
-10.843758
 70
    64
  0
VERTEX
  8
I-FLU
  5
779
 10
125.103783
 20
997.114513
 30
-6.615422
 70
    64
  0
SEQEND
  8
I-FLU
  5
77A
  0
POLYLINE
  8
I-FLU
  5
77B
 66
     1
 10
0.0
 20
0.0
 30
0.0
 70
    16
 71
     2
 72
     9
  0
VERTEX
  8
I-FLU
  5
77C
 10
82.020522
 20
1012.114513
 30
-6.615422
 70
    64
  0
VERTEX
  8
I-FLU
  5
77D
 10
86.294249
 20
1012.114513
 30
-9.453016
 70
    64
  0
VERTEX
  8
I-FLU
  5
77E
 10
90.981169
 20
1012.114513
 30
-11.538554
 70
    64
  0
VERTEX
  8
I-FLU
  5
77F
 10
95.950146
 20
1012.114513
 30
-12.813683
 70
    64
  0
VERTEX
  8
I-FLU
  5
780
 10
101.062152
 20
1012.114513
 30
-13.242728
 70
    64
  0
VERTEX
  8
I-FLU
  5
781
 10
106.174159
 20
1012.114513
 30
-12.813683
 70
    64
  0
VERTEX
  8
I-FLU
  5
782
 10
111.143136
 20
1012.114513
 30
-11.538554
 70
    64
  0
VERTEX
  8
I-FLU
  5
783
 10
115.830056
 20
1012.114513
 30
-9.453016
 70
    64
  0
VERTEX
  8
I-FLU
  5
784
 10
120.103783
 20
1012.114513
 30
-6.615422
 70
    64
  0
VERTEX
  8
I-FLU
  5
785
 10
77.020522
 20
1012.114513
 30
-6.615422
 70
    64
  0
VERTEX
  8
I-FLU
  5
786
 10
82.172764
 20
1012.114513
 30
-10.843758
 70
    64
  0
VERTEX
  8
I-FLU
  5
787
 10
88.050916
 20
1012.114513
 30
-13.985695
 70
    64
  0
VERTEX
  8
I-FLU
  5
788
 10
94.429081
 20
1012.114513
 30
-15.92049
 70
    64
  0
VERTEX
  8
I-FLU
  5
789
 10
101.062152
 20
1012.114513
 30
-16.573791
 70
    64
  0
VERTEX
  8
I-FLU
  5
78A
 10
107.695223
 20
1012.114513
 30
-15.92049
 70
    64
  0
VERTEX
  8
I-FLU
  5
78B
 10
114.073389
 20
1012.114513
 30
-13.985695
 70
    64
  0
VERTEX
  8
I-FLU
  5
78C
 10
119.95154
 20
1012.114513
 30
-10.843758
 70
    64
  0
VERTEX
  8
I-FLU
  5
78D
 10
125.103783
 20
1012.114513
 30
-6.615422
 70
    64
  0
SEQEND
  8
I-FLU
  5
78E
  0
POLYLINE
  8
I-FLU
  5
78F
 66
     1
 10
0.0
 20
0.0
 30
0.0
 70
    16
 71
     2
 72
     9
  0
VERTEX
  8
I-FLU
  5
790
 10
82.020522
 20
1027.114513
 30
-6.615422
 70
    64
  0
VERTEX
  8
I-FLU
  5
791
 10
86.294249
 20
1027.114513
 30
-9.453016
 70
    64
  0
VERTEX
  8
I-FLU
  5
792
 10
90.981169
 20
1027.114513
 30
-11.538554
 70
    64
  0
VERTEX
  8
I-FLU
  5
793
 10
95.950146
 20
1027.114513
 30
-12.813683
 70
    64
  0
VERTEX
  8
I-FLU
  5
794
 10
101.062152
 20
1027.114513
 30
-13.242728
 70
    64
  0
VERTEX
  8
I-FLU
  5
795
 10
106.174159
 20
1027.114513
 30
-12.813683
 70
    64
  0
VERTEX
  8
I-FLU
  5
796
 10
111.143136
 20
1027.114513
 30
-11.538554
 70
    64
  0
VERTEX
  8
I-FLU
  5
797
 10
115.830056
 20
1027.114513
 30
-9.453016
 70
    64
  0
VERTEX
  8
I-FLU
  5
798
 10
120.103783
 20
1027.114513
 30
-6.615422
 70
    64
  0
VERTEX
  8
I-FLU
  5
799
 10
77.020522
 20
1027.114513
 30
-6.615422
 70
    64
  0
VERTEX
  8
I-FLU
  5
79A
 10
82.172764
 20
1027.114513
 30
-10.843758
 70
    64
  0
VERTEX
  8
I-FLU
  5
79B
 10
88.050916
 20
1027.114513
 30
-13.985695
 70
    64
  0
VERTEX
  8
I-FLU
  5
79C
 10
94.429081
 20
1027.114513
 30
-15.92049
 70
    64
  0
VERTEX
  8
I-FLU
  5
79D
 10
101.062152
 20
1027.114513
 30
-16.573791
 70
    64
  0
VERTEX
  8
I-FLU
  5
79E
 10
107.695223
 20
1027.114513
 30
-15.92049
 70
    64
  0
VERTEX
  8
I-FLU
  5
79F
 10
114.073389
 20
1027.114513
 30
-13.985695
 70
    64
  0
VERTEX
  8
I-FLU
  5
7A0
 10
119.95154
 20
1027.114513
 30
-10.843758
 70
    64
  0
VERTEX
  8
I-FLU
  5
7A1
 10
125.103783
 20
1027.114513
 30
-6.615422
 70
    64
  0
SEQEND
  8
I-FLU
  5
7A2
  0
POLYLINE
  8
I-FLU
  5
7A3
 66
     1
 10
0.0
 20
0.0
 30
0.0
 70
    16
 71
     2
 72
     9
  0
VERTEX
  8
I-FLU
  5
7A4
 10
82.020522
 20
1042.114513
 30
-6.615422
 70
    64
  0
VERTEX
  8
I-FLU
  5
7A5
 10
86.294249
 20
1042.114513
 30
-9.453016
 70
    64
  0
VERTEX
  8
I-FLU
  5
7A6
 10
90.981169
 20
1042.114513
 30
-11.538554
 70
    64
  0
VERTEX
  8
I-FLU
  5
7A7
 10
95.950146
 20
1042.114513
 30
-12.813683
 70
    64
  0
VERTEX
  8
I-FLU
  5
7A8
 10
101.062152
 20
1042.114513
 30
-13.242728
 70
    64
  0
VERTEX
  8
I-FLU
  5
7A9
 10
106.174159
 20
1042.114513
 30
-12.813683
 70
    64
  0
VERTEX
  8
I-FLU
  5
7AA
 10
111.143136
 20
1042.114513
 30
-11.538554
 70
    64
  0
VERTEX
  8
I-FLU
  5
7AB
 10
115.830056
 20
1042.114513
 30
-9.453016
 70
    64
  0
VERTEX
  8
I-FLU
  5
7AC
 10
120.103783
 20
1042.114513
 30
-6.615422
 70
    64
  0
VERTEX
  8
I-FLU
  5
7AD
 10
77.020522
 20
1042.114513
 30
-6.615422
 70
    64
  0
VERTEX
  8
I-FLU
  5
7AE
 10
82.172764
 20
1042.114513
 30
-10.843758
 70
    64
  0
VERTEX
  8
I-FLU
  5
7AF
 10
88.050916
 20
1042.114513
 30
-13.985695
 70
    64
  0
VERTEX
  8
I-FLU
  5
7B0
 10
94.429081
 20
1042.114513
 30
-15.92049
 70
    64
  0
VERTEX
  8
I-FLU
  5
7B1
 10
101.062152
 20
1042.114513
 30
-16.573791
 70
    64
  0
VERTEX
  8
I-FLU
  5
7B2
 10
107.695223
 20
1042.114513
 30
-15.92049
 70
    64
  0
VERTEX
  8
I-FLU
  5
7B3
 10
114.073389
 20
1042.114513
 30
-13.985695
 70
    64
  0
VERTEX
  8
I-FLU
  5
7B4
 10
119.95154
 20
1042.114513
 30
-10.843758
 70
    64
  0
VERTEX
  8
I-FLU
  5
7B5
 10
125.103783
 20
1042.114513
 30
-6.615422
 70
    64
  0
SEQEND
  8
I-FLU
  5
7B6
  0
POLYLINE
  8
I-FLU
  5
7B7
 66
     1
 10
0.0
 20
0.0
 30
0.0
 70
    16
 71
     2
 72
     9
  0
VERTEX
  8
I-FLU
  5
7B8
 10
82.020522
 20
1057.114513
 30
-6.615422
 70
    64
  0
VERTEX
  8
I-FLU
  5
7B9
 10
86.294249
 20
1057.114513
 30
-9.453016
 70
    64
  0
VERTEX
  8
I-FLU
  5
7BA
 10
90.981169
 20
1057.114513
 30
-11.538554
 70
    64
  0
VERTEX
  8
I-FLU
  5
7BB
 10
95.950146
 20
1057.114513
 30
-12.813683
 70
    64
  0
VERTEX
  8
I-FLU
  5
7BC
 10
101.062152
 20
1057.114513
 30
-13.242728
 70
    64
  0
VERTEX
  8
I-FLU
  5
7BD
 10
106.174159
 20
1057.114513
 30
-12.813683
 70
    64
  0
VERTEX
  8
I-FLU
  5
7BE
 10
111.143136
 20
1057.114513
 30
-11.538554
 70
    64
  0
VERTEX
  8
I-FLU
  5
7BF
 10
115.830056
 20
1057.114513
 30
-9.453016
 70
    64
  0
VERTEX
  8
I-FLU
  5
7C0
 10
120.103783
 20
1057.114513
 30
-6.615422
 70
    64
  0
VERTEX
  8
I-FLU
  5
7C1
 10
77.020522
 20
1057.114513
 30
-6.615422
 70
    64
  0
VERTEX
  8
I-FLU
  5
7C2
 10
82.172764
 20
1057.114513
 30
-10.843758
 70
    64
  0
VERTEX
  8
I-FLU
  5
7C3
 10
88.050916
 20
1057.114513
 30
-13.985695
 70
    64
  0
VERTEX
  8
I-FLU
  5
7C4
 10
94.429081
 20
1057.114513
 30
-15.92049
 70
    64
  0
VERTEX
  8
I-FLU
  5
7C5
 10
101.062152
 20
1057.114513
 30
-16.573791
 70
    64
  0
VERTEX
  8
I-FLU
  5
7C6
 10
107.695223
 20
1057.114513
 30
-15.92049
 70
    64
  0
VERTEX
  8
I-FLU
  5
7C7
 10
114.073389
 20
1057.114513
 30
-13.985695
 70
    64
  0
VERTEX
  8
I-FLU
  5
7C8
 10
119.95154
 20
1057.114513
 30
-10.843758
 70
    64
  0
VERTEX
  8
I-FLU
  5
7C9
 10
125.103783
 20
1057.114513
 30
-6.615422
 70
    64
  0
SEQEND
  8
I-FLU
  5
7CA
  0
POLYLINE
  8
I-FLU
  5
7CB
 66
     1
 10
0.0
 20
0.0
 30
0.0
 70
    16
 71
     2
 72
     9
  0
VERTEX
  8
I-FLU
  5
7CC
 10
82.020522
 20
1072.114513
 30
-6.615422
 70
    64
  0
VERTEX
  8
I-FLU
  5
7CD
 10
86.294249
 20
1072.114513
 30
-9.453016
 70
    64
  0
VERTEX
  8
I-FLU
  5
7CE
 10
90.981169
 20
1072.114513
 30
-11.538554
 70
    64
  0
VERTEX
  8
I-FLU
  5
7CF
 10
95.950146
 20
1072.114513
 30
-12.813683
 70
    64
  0
VERTEX
  8
I-FLU
  5
7D0
 10
101.062152
 20
1072.114513
 30
-13.242728
 70
    64
  0
VERTEX
  8
I-FLU
  5
7D1
 10
106.174159
 20
1072.114513
 30
-12.813683
 70
    64
  0
VERTEX
  8
I-FLU
  5
7D2
 10
111.143136
 20
1072.114513
 30
-11.538554
 70
    64
  0
VERTEX
  8
I-FLU
  5
7D3
 10
115.830056
 20
1072.114513
 30
-9.453016
 70
    64
  0
VERTEX
  8
I-FLU
  5
7D4
 10
120.103783
 20
1072.114513
 30
-6.615422
 70
    64
  0
VERTEX
  8
I-FLU
  5
7D5
 10
77.020522
 20
1072.114513
 30
-6.615422
 70
    64
  0
VERTEX
  8
I-FLU
  5
7D6
 10
82.172764
 20
1072.114513
 30
-10.843758
 70
    64
  0
VERTEX
  8
I-FLU
  5
7D7
 10
88.050916
 20
1072.114513
 30
-13.985695
 70
    64
  0
VERTEX
  8
I-FLU
  5
7D8
 10
94.429081
 20
1072.114513
 30
-15.92049
 70
    64
  0
VERTEX
  8
I-FLU
  5
7D9
 10
101.062152
 20
1072.114513
 30
-16.573791
 70
    64
  0
VERTEX
  8
I-FLU
  5
7DA
 10
107.695223
 20
1072.114513
 30
-15.92049
 70
    64
  0
VERTEX
  8
I-FLU
  5
7DB
 10
114.073389
 20
1072.114513
 30
-13.985695
 70
    64
  0
VERTEX
  8
I-FLU
  5
7DC
 10
119.95154
 20
1072.114513
 30
-10.843758
 70
    64
  0
VERTEX
  8
I-FLU
  5
7DD
 10
125.103783
 20
1072.114513
 30
-6.615422
 70
    64
  0
SEQEND
  8
I-FLU
  5
7DE
  0
POLYLINE
  8
I-FLU
  5
7DF
 66
     1
 10
0.0
 20
0.0
 30
0.0
 70
    16
 71
     2
 72
     9
  0
VERTEX
  8
I-FLU
  5
7E0
 10
82.020522
 20
1087.114513
 30
-6.615422
 70
    64
  0
VERTEX
  8
I-FLU
  5
7E1
 10
86.294249
 20
1087.114513
 30
-9.453016
 70
    64
  0
VERTEX
  8
I-FLU
  5
7E2
 10
90.981169
 20
1087.114513
 30
-11.538554
 70
    64
  0
VERTEX
  8
I-FLU
  5
7E3
 10
95.950146
 20
1087.114513
 30
-12.813683
 70
    64
  0
VERTEX
  8
I-FLU
  5
7E4
 10
101.062152
 20
1087.114513
 30
-13.242728
 70
    64
  0
VERTEX
  8
I-FLU
  5
7E5
 10
106.174159
 20
1087.114513
 30
-12.813683
 70
    64
  0
VERTEX
  8
I-FLU
  5
7E6
 10
111.143136
 20
1087.114513
 30
-11.538554
 70
    64
  0
VERTEX
  8
I-FLU
  5
7E7
 10
115.830056
 20
1087.114513
 30
-9.453016
 70
    64
  0
VERTEX
  8
I-FLU
  5
7E8
 10
120.103783
 20
1087.114513
 30
-6.615422
 70
    64
  0
VERTEX
  8
I-FLU
  5
7E9
 10
77.020522
 20
1087.114513
 30
-6.615422
 70
    64
  0
VERTEX
  8
I-FLU
  5
7EA
 10
82.172764
 20
1087.114513
 30
-10.843758
 70
    64
  0
VERTEX
  8
I-FLU
  5
7EB
 10
88.050916
 20
1087.114513
 30
-13.985695
 70
    64
  0
VERTEX
  8
I-FLU
  5
7EC
 10
94.429081
 20
1087.114513
 30
-15.92049
 70
    64
  0
VERTEX
  8
I-FLU
  5
7ED
 10
101.062152
 20
1087.114513
 30
-16.573791
 70
    64
  0
VERTEX
  8
I-FLU
  5
7EE
 10
107.695223
 20
1087.114513
 30
-15.92049
 70
    64
  0
VERTEX
  8
I-FLU
  5
7EF
 10
114.073389
 20
1087.114513
 30
-13.985695
 70
    64
  0
VERTEX
  8
I-FLU
  5
7F0
 10
119.95154
 20
1087.114513
 30
-10.843758
 70
    64
  0
VERTEX
  8
I-FLU
  5
7F1
 10
125.103783
 20
1087.114513
 30
-6.615422
 70
    64
  0
SEQEND
  8
I-FLU
  5
7F2
  0
POLYLINE
  8
I-FLU
  5
7F3
 66
     1
 10
0.0
 20
0.0
 30
0.0
 70
    16
 71
     2
 72
     9
  0
VERTEX
  8
I-FLU
  5
7F4
 10
82.020522
 20
1102.114513
 30
-6.615422
 70
    64
  0
VERTEX
  8
I-FLU
  5
7F5
 10
86.294249
 20
1102.114513
 30
-9.453016
 70
    64
  0
VERTEX
  8
I-FLU
  5
7F6
 10
90.981169
 20
1102.114513
 30
-11.538554
 70
    64
  0
VERTEX
  8
I-FLU
  5
7F7
 10
95.950146
 20
1102.114513
 30
-12.813683
 70
    64
  0
VERTEX
  8
I-FLU
  5
7F8
 10
101.062152
 20
1102.114513
 30
-13.242728
 70
    64
  0
VERTEX
  8
I-FLU
  5
7F9
 10
106.174159
 20
1102.114513
 30
-12.813683
 70
    64
  0
VERTEX
  8
I-FLU
  5
7FA
 10
111.143136
 20
1102.114513
 30
-11.538554
 70
    64
  0
VERTEX
  8
I-FLU
  5
7FB
 10
115.830056
 20
1102.114513
 30
-9.453016
 70
    64
  0
VERTEX
  8
I-FLU
  5
7FC
 10
120.103783
 20
1102.114513
 30
-6.615422
 70
    64
  0
VERTEX
  8
I-FLU
  5
7FD
 10
77.020522
 20
1102.114513
 30
-6.615422
 70
    64
  0
VERTEX
  8
I-FLU
  5
7FE
 10
82.172764
 20
1102.114513
 30
-10.843758
 70
    64
  0
VERTEX
  8
I-FLU
  5
7FF
 10
88.050916
 20
1102.114513
 30
-13.985695
 70
    64
  0
VERTEX
  8
I-FLU
  5
800
 10
94.429081
 20
1102.114513
 30
-15.92049
 70
    64
  0
VERTEX
  8
I-FLU
  5
801
 10
101.062152
 20
1102.114513
 30
-16.573791
 70
    64
  0
VERTEX
  8
I-FLU
  5
802
 10
107.695223
 20
1102.114513
 30
-15.92049
 70
    64
  0
VERTEX
  8
I-FLU
  5
803
 10
114.073389
 20
1102.114513
 30
-13.985695
 70
    64
  0
VERTEX
  8
I-FLU
  5
804
 10
119.95154
 20
1102.114513
 30
-10.843758
 70
    64
  0
VERTEX
  8
I-FLU
  5
805
 10
125.103783
 20
1102.114513
 30
-6.615422
 70
    64
  0
SEQEND
  8
I-FLU
  5
806
  0
POLYLINE
  8
I-FLU
  5
807
 66
     1
 10
0.0
 20
0.0
 30
0.0
 70
    16
 71
     2
 72
     9
  0
VERTEX
  8
I-FLU
  5
808
 10
82.020522
 20
1117.114513
 30
-6.615422
 70
    64
  0
VERTEX
  8
I-FLU
  5
809
 10
86.294249
 20
1117.114513
 30
-9.453016
 70
    64
  0
VERTEX
  8
I-FLU
  5
80A
 10
90.981169
 20
1117.114513
 30
-11.538554
 70
    64
  0
VERTEX
  8
I-FLU
  5
80B
 10
95.950146
 20
1117.114513
 30
-12.813683
 70
    64
  0
VERTEX
  8
I-FLU
  5
80C
 10
101.062152
 20
1117.114513
 30
-13.242728
 70
    64
  0
VERTEX
  8
I-FLU
  5
80D
 10
106.174159
 20
1117.114513
 30
-12.813683
 70
    64
  0
VERTEX
  8
I-FLU
  5
80E
 10
111.143136
 20
1117.114513
 30
-11.538554
 70
    64
  0
VERTEX
  8
I-FLU
  5
80F
 10
115.830056
 20
1117.114513
 30
-9.453016
 70
    64
  0
VERTEX
  8
I-FLU
  5
810
 10
120.103783
 20
1117.114513
 30
-6.615422
 70
    64
  0
VERTEX
  8
I-FLU
  5
811
 10
77.020522
 20
1117.114513
 30
-6.615422
 70
    64
  0
VERTEX
  8
I-FLU
  5
812
 10
82.172764
 20
1117.114513
 30
-10.843758
 70
    64
  0
VERTEX
  8
I-FLU
  5
813
 10
88.050916
 20
1117.114513
 30
-13.985695
 70
    64
  0
VERTEX
  8
I-FLU
  5
814
 10
94.429081
 20
1117.114513
 30
-15.92049
 70
    64
  0
VERTEX
  8
I-FLU
  5
815
 10
101.062152
 20
1117.114513
 30
-16.573791
 70
    64
  0
VERTEX
  8
I-FLU
  5
816
 10
107.695223
 20
1117.114513
 30
-15.92049
 70
    64
  0
VERTEX
  8
I-FLU
  5
817
 10
114.073389
 20
1117.114513
 30
-13.985695
 70
    64
  0
VERTEX
  8
I-FLU
  5
818
 10
119.95154
 20
1117.114513
 30
-10.843758
 70
    64
  0
VERTEX
  8
I-FLU
  5
819
 10
125.103783
 20
1117.114513
 30
-6.615422
 70
    64
  0
SEQEND
  8
I-FLU
  5
81A
  0
POLYLINE
  8
I-FLU
  5
81B
 66
     1
 10
0.0
 20
0.0
 30
0.0
 70
    16
 71
     2
 72
     9
  0
VERTEX
  8
I-FLU
  5
81C
 10
82.020522
 20
1132.114513
 30
-6.615422
 70
    64
  0
VERTEX
  8
I-FLU
  5
81D
 10
86.294249
 20
1132.114513
 30
-9.453016
 70
    64
  0
VERTEX
  8
I-FLU
  5
81E
 10
90.981169
 20
1132.114513
 30
-11.538554
 70
    64
  0
VERTEX
  8
I-FLU
  5
81F
 10
95.950146
 20
1132.114513
 30
-12.813683
 70
    64
  0
VERTEX
  8
I-FLU
  5
820
 10
101.062152
 20
1132.114513
 30
-13.242728
 70
    64
  0
VERTEX
  8
I-FLU
  5
821
 10
106.174159
 20
1132.114513
 30
-12.813683
 70
    64
  0
VERTEX
  8
I-FLU
  5
822
 10
111.143136
 20
1132.114513
 30
-11.538554
 70
    64
  0
VERTEX
  8
I-FLU
  5
823
 10
115.830056
 20
1132.114513
 30
-9.453016
 70
    64
  0
VERTEX
  8
I-FLU
  5
824
 10
120.103783
 20
1132.114513
 30
-6.615422
 70
    64
  0
VERTEX
  8
I-FLU
  5
825
 10
77.020522
 20
1132.114513
 30
-6.615422
 70
    64
  0
VERTEX
  8
I-FLU
  5
826
 10
82.172764
 20
1132.114513
 30
-10.843758
 70
    64
  0
VERTEX
  8
I-FLU
  5
827
 10
88.050916
 20
1132.114513
 30
-13.985695
 70
    64
  0
VERTEX
  8
I-FLU
  5
828
 10
94.429081
 20
1132.114513
 30
-15.92049
 70
    64
  0
VERTEX
  8
I-FLU
  5
829
 10
101.062152
 20
1132.114513
 30
-16.573791
 70
    64
  0
VERTEX
  8
I-FLU
  5
82A
 10
107.695223
 20
1132.114513
 30
-15.92049
 70
    64
  0
VERTEX
  8
I-FLU
  5
82B
 10
114.073389
 20
1132.114513
 30
-13.985695
 70
    64
  0
VERTEX
  8
I-FLU
  5
82C
 10
119.95154
 20
1132.114513
 30
-10.843758
 70
    64
  0
VERTEX
  8
I-FLU
  5
82D
 10
125.103783
 20
1132.114513
 30
-6.615422
 70
    64
  0
SEQEND
  8
I-FLU
  5
82E
  0
POLYLINE
  8
I-FLU
  5
82F
 66
     1
 10
0.0
 20
0.0
 30
0.0
 70
    16
 71
     2
 72
     9
  0
VERTEX
  8
I-FLU
  5
830
 10
82.020522
 20
1147.114513
 30
-6.615422
 70
    64
  0
VERTEX
  8
I-FLU
  5
831
 10
86.294249
 20
1147.114513
 30
-9.453016
 70
    64
  0
VERTEX
  8
I-FLU
  5
832
 10
90.981169
 20
1147.114513
 30
-11.538554
 70
    64
  0
VERTEX
  8
I-FLU
  5
833
 10
95.950146
 20
1147.114513
 30
-12.813683
 70
    64
  0
VERTEX
  8
I-FLU
  5
834
 10
101.062152
 20
1147.114513
 30
-13.242728
 70
    64
  0
VERTEX
  8
I-FLU
  5
835
 10
106.174159
 20
1147.114513
 30
-12.813683
 70
    64
  0
VERTEX
  8
I-FLU
  5
836
 10
111.143136
 20
1147.114513
 30
-11.538554
 70
    64
  0
VERTEX
  8
I-FLU
  5
837
 10
115.830056
 20
1147.114513
 30
-9.453016
 70
    64
  0
VERTEX
  8
I-FLU
  5
838
 10
120.103783
 20
1147.114513
 30
-6.615422
 70
    64
  0
VERTEX
  8
I-FLU
  5
839
 10
77.020522
 20
1147.114513
 30
-6.615422
 70
    64
  0
VERTEX
  8
I-FLU
  5
83A
 10
82.172764
 20
1147.114513
 30
-10.843758
 70
    64
  0
VERTEX
  8
I-FLU
  5
83B
 10
88.050916
 20
1147.114513
 30
-13.985695
 70
    64
  0
VERTEX
  8
I-FLU
  5
83C
 10
94.429081
 20
1147.114513
 30
-15.92049
 70
    64
  0
VERTEX
  8
I-FLU
  5
83D
 10
101.062152
 20
1147.114513
 30
-16.573791
 70
    64
  0
VERTEX
  8
I-FLU
  5
83E
 10
107.695223
 20
1147.114513
 30
-15.92049
 70
    64
  0
VERTEX
  8
I-FLU
  5
83F
 10
114.073389
 20
1147.114513
 30
-13.985695
 70
    64
  0
VERTEX
  8
I-FLU
  5
840
 10
119.95154
 20
1147.114513
 30
-10.843758
 70
    64
  0
VERTEX
  8
I-FLU
  5
841
 10
125.103783
 20
1147.114513
 30
-6.615422
 70
    64
  0
SEQEND
  8
I-FLU
  5
842
  0
POLYLINE
  8
I-FLU
  5
843
 66
     1
 10
0.0
 20
0.0
 30
0.0
 70
    16
 71
     2
 72
     9
  0
VERTEX
  8
I-FLU
  5
844
 10
82.020522
 20
1162.114513
 30
-6.615422
 70
    64
  0
VERTEX
  8
I-FLU
  5
845
 10
86.294249
 20
1162.114513
 30
-9.453016
 70
    64
  0
VERTEX
  8
I-FLU
  5
846
 10
90.981169
 20
1162.114513
 30
-11.538554
 70
    64
  0
VERTEX
  8
I-FLU
  5
847
 10
95.950146
 20
1162.114513
 30
-12.813683
 70
    64
  0
VERTEX
  8
I-FLU
  5
848
 10
101.062152
 20
1162.114513
 30
-13.242728
 70
    64
  0
VERTEX
  8
I-FLU
  5
849
 10
106.174159
 20
1162.114513
 30
-12.813683
 70
    64
  0
VERTEX
  8
I-FLU
  5
84A
 10
111.143136
 20
1162.114513
 30
-11.538554
 70
    64
  0
VERTEX
  8
I-FLU
  5
84B
 10
115.830056
 20
1162.114513
 30
-9.453016
 70
    64
  0
VERTEX
  8
I-FLU
  5
84C
 10
120.103783
 20
1162.114513
 30
-6.615422
 70
    64
  0
VERTEX
  8
I-FLU
  5
84D
 10
77.020522
 20
1162.114513
 30
-6.615422
 70
    64
  0
VERTEX
  8
I-FLU
  5
84E
 10
82.172764
 20
1162.114513
 30
-10.843758
 70
    64
  0
VERTEX
  8
I-FLU
  5
84F
 10
88.050916
 20
1162.114513
 30
-13.985695
 70
    64
  0
VERTEX
  8
I-FLU
  5
850
 10
94.429081
 20
1162.114513
 30
-15.92049
 70
    64
  0
VERTEX
  8
I-FLU
  5
851
 10
101.062152
 20
1162.114513
 30
-16.573791
 70
    64
  0
VERTEX
  8
I-FLU
  5
852
 10
107.695223
 20
1162.114513
 30
-15.92049
 70
    64
  0
VERTEX
  8
I-FLU
  5
853
 10
114.073389
 20
1162.114513
 30
-13.985695
 70
    64
  0
VERTEX
  8
I-FLU
  5
854
 10
119.95154
 20
1162.114513
 30
-10.843758
 70
    64
  0
VERTEX
  8
I-FLU
  5
855
 10
125.103783
 20
1162.114513
 30
-6.615422
 70
    64
  0
SEQEND
  8
I-FLU
  5
856
  0
POLYLINE
  8
I-FLU
  5
857
 66
     1
 10
0.0
 20
0.0
 30
0.0
 70
    16
 71
     2
 72
     9
  0
VERTEX
  8
I-FLU
  5
858
 10
82.020522
 20
1177.114513
 30
-6.615422
 70
    64
  0
VERTEX
  8
I-FLU
  5
859
 10
86.294249
 20
1177.114513
 30
-9.453016
 70
    64
  0
VERTEX
  8
I-FLU
  5
85A
 10
90.981169
 20
1177.114513
 30
-11.538554
 70
    64
  0
VERTEX
  8
I-FLU
  5
85B
 10
95.950146
 20
1177.114513
 30
-12.813683
 70
    64
  0
VERTEX
  8
I-FLU
  5
85C
 10
101.062152
 20
1177.114513
 30
-13.242728
 70
    64
  0
VERTEX
  8
I-FLU
  5
85D
 10
106.174159
 20
1177.114513
 30
-12.813683
 70
    64
  0
VERTEX
  8
I-FLU
  5
85E
 10
111.143136
 20
1177.114513
 30
-11.538554
 70
    64
  0
VERTEX
  8
I-FLU
  5
85F
 10
115.830056
 20
1177.114513
 30
-9.453016
 70
    64
  0
VERTEX
  8
I-FLU
  5
860
 10
120.103783
 20
1177.114513
 30
-6.615422
 70
    64
  0
VERTEX
  8
I-FLU
  5
861
 10
77.020522
 20
1177.114513
 30
-6.615422
 70
    64
  0
VERTEX
  8
I-FLU
  5
862
 10
82.172764
 20
1177.114513
 30
-10.843758
 70
    64
  0
VERTEX
  8
I-FLU
  5
863
 10
88.050916
 20
1177.114513
 30
-13.985695
 70
    64
  0
VERTEX
  8
I-FLU
  5
864
 10
94.429081
 20
1177.114513
 30
-15.92049
 70
    64
  0
VERTEX
  8
I-FLU
  5
865
 10
101.062152
 20
1177.114513
 30
-16.573791
 70
    64
  0
VERTEX
  8
I-FLU
  5
866
 10
107.695223
 20
1177.114513
 30
-15.92049
 70
    64
  0
VERTEX
  8
I-FLU
  5
867
 10
114.073389
 20
1177.114513
 30
-13.985695
 70
    64
  0
VERTEX
  8
I-FLU
  5
868
 10
119.95154
 20
1177.114513
 30
-10.843758
 70
    64
  0
VERTEX
  8
I-FLU
  5
869
 10
125.103783
 20
1177.114513
 30
-6.615422
 70
    64
  0
SEQEND
  8
I-FLU
  5
86A
  0
POLYLINE
  8
I-FLU
  5
86B
 66
     1
 10
0.0
 20
0.0
 30
0.0
 70
    16
 71
     2
 72
     9
  0
VERTEX
  8
I-FLU
  5
86C
 10
82.020522
 20
1192.114513
 30
-6.615422
 70
    64
  0
VERTEX
  8
I-FLU
  5
86D
 10
86.294249
 20
1192.114513
 30
-9.453016
 70
    64
  0
VERTEX
  8
I-FLU
  5
86E
 10
90.981169
 20
1192.114513
 30
-11.538554
 70
    64
  0
VERTEX
  8
I-FLU
  5
86F
 10
95.950146
 20
1192.114513
 30
-12.813683
 70
    64
  0
VERTEX
  8
I-FLU
  5
870
 10
101.062152
 20
1192.114513
 30
-13.242728
 70
    64
  0
VERTEX
  8
I-FLU
  5
871
 10
106.174159
 20
1192.114513
 30
-12.813683
 70
    64
  0
VERTEX
  8
I-FLU
  5
872
 10
111.143136
 20
1192.114513
 30
-11.538554
 70
    64
  0
VERTEX
  8
I-FLU
  5
873
 10
115.830056
 20
1192.114513
 30
-9.453016
 70
    64
  0
VERTEX
  8
I-FLU
  5
874
 10
120.103783
 20
1192.114513
 30
-6.615422
 70
    64
  0
VERTEX
  8
I-FLU
  5
875
 10
77.020522
 20
1192.114513
 30
-6.615422
 70
    64
  0
VERTEX
  8
I-FLU
  5
876
 10
82.172764
 20
1192.114513
 30
-10.843758
 70
    64
  0
VERTEX
  8
I-FLU
  5
877
 10
88.050916
 20
1192.114513
 30
-13.985695
 70
    64
  0
VERTEX
  8
I-FLU
  5
878
 10
94.429081
 20
1192.114513
 30
-15.92049
 70
    64
  0
VERTEX
  8
I-FLU
  5
879
 10
101.062152
 20
1192.114513
 30
-16.573791
 70
    64
  0
VERTEX
  8
I-FLU
  5
87A
 10
107.695223
 20
1192.114513
 30
-15.92049
 70
    64
  0
VERTEX
  8
I-FLU
  5
87B
 10
114.073389
 20
1192.114513
 30
-13.985695
 70
    64
  0
VERTEX
  8
I-FLU
  5
87C
 10
119.95154
 20
1192.114513
 30
-10.843758
 70
    64
  0
VERTEX
  8
I-FLU
  5
87D
 10
125.103783
 20
1192.114513
 30
-6.615422
 70
    64
  0
SEQEND
  8
I-FLU
  5
87E
  0
POLYLINE
  8
I-FLU
  5
87F
 66
     1
 10
0.0
 20
0.0
 30
0.0
 70
    16
 71
     2
 72
     9
  0
VERTEX
  8
I-FLU
  5
880
 10
82.020522
 20
1207.114513
 30
-6.615422
 70
    64
  0
VERTEX
  8
I-FLU
  5
881
 10
86.294249
 20
1207.114513
 30
-9.453016
 70
    64
  0
VERTEX
  8
I-FLU
  5
882
 10
90.981169
 20
1207.114513
 30
-11.538554
 70
    64
  0
VERTEX
  8
I-FLU
  5
883
 10
95.950146
 20
1207.114513
 30
-12.813683
 70
    64
  0
VERTEX
  8
I-FLU
  5
884
 10
101.062152
 20
1207.114513
 30
-13.242728
 70
    64
  0
VERTEX
  8
I-FLU
  5
885
 10
106.174159
 20
1207.114513
 30
-12.813683
 70
    64
  0
VERTEX
  8
I-FLU
  5
886
 10
111.143136
 20
1207.114513
 30
-11.538554
 70
    64
  0
VERTEX
  8
I-FLU
  5
887
 10
115.830056
 20
1207.114513
 30
-9.453016
 70
    64
  0
VERTEX
  8
I-FLU
  5
888
 10
120.103783
 20
1207.114513
 30
-6.615422
 70
    64
  0
VERTEX
  8
I-FLU
  5
889
 10
77.020522
 20
1207.114513
 30
-6.615422
 70
    64
  0
VERTEX
  8
I-FLU
  5
88A
 10
82.172764
 20
1207.114513
 30
-10.843758
 70
    64
  0
VERTEX
  8
I-FLU
  5
88B
 10
88.050916
 20
1207.114513
 30
-13.985695
 70
    64
  0
VERTEX
  8
I-FLU
  5
88C
 10
94.429081
 20
1207.114513
 30
-15.92049
 70
    64
  0
VERTEX
  8
I-FLU
  5
88D
 10
101.062152
 20
1207.114513
 30
-16.573791
 70
    64
  0
VERTEX
  8
I-FLU
  5
88E
 10
107.695223
 20
1207.114513
 30
-15.92049
 70
    64
  0
VERTEX
  8
I-FLU
  5
88F
 10
114.073389
 20
1207.114513
 30
-13.985695
 70
    64
  0
VERTEX
  8
I-FLU
  5
890
 10
119.95154
 20
1207.114513
 30
-10.843758
 70
    64
  0
VERTEX
  8
I-FLU
  5
891
 10
125.103783
 20
1207.114513
 30
-6.615422
 70
    64
  0
SEQEND
  8
I-FLU
  5
892
  0
POLYLINE
  8
I-FLU
  5
893
 66
     1
 10
0.0
 20
0.0
 30
0.0
 70
    16
 71
     2
 72
     9
  0
VERTEX
  8
I-FLU
  5
894
 10
82.020522
 20
1222.114513
 30
-6.615422
 70
    64
  0
VERTEX
  8
I-FLU
  5
895
 10
86.294249
 20
1222.114513
 30
-9.453016
 70
    64
  0
VERTEX
  8
I-FLU
  5
896
 10
90.981169
 20
1222.114513
 30
-11.538554
 70
    64
  0
VERTEX
  8
I-FLU
  5
897
 10
95.950146
 20
1222.114513
 30
-12.813683
 70
    64
  0
VERTEX
  8
I-FLU
  5
898
 10
101.062152
 20
1222.114513
 30
-13.242728
 70
    64
  0
VERTEX
  8
I-FLU
  5
899
 10
106.174159
 20
1222.114513
 30
-12.813683
 70
    64
  0
VERTEX
  8
I-FLU
  5
89A
 10
111.143136
 20
1222.114513
 30
-11.538554
 70
    64
  0
VERTEX
  8
I-FLU
  5
89B
 10
115.830056
 20
1222.114513
 30
-9.453016
 70
    64
  0
VERTEX
  8
I-FLU
  5
89C
 10
120.103783
 20
1222.114513
 30
-6.615422
 70
    64
  0
VERTEX
  8
I-FLU
  5
89D
 10
77.020522
 20
1222.114513
 30
-6.615422
 70
    64
  0
VERTEX
  8
I-FLU
  5
89E
 10
82.172764
 20
1222.114513
 30
-10.843758
 70
    64
  0
VERTEX
  8
I-FLU
  5
89F
 10
88.050916
 20
1222.114513
 30
-13.985695
 70
    64
  0
VERTEX
  8
I-FLU
  5
8A0
 10
94.429081
 20
1222.114513
 30
-15.92049
 70
    64
  0
VERTEX
  8
I-FLU
  5
8A1
 10
101.062152
 20
1222.114513
 30
-16.573791
 70
    64
  0
VERTEX
  8
I-FLU
  5
8A2
 10
107.695223
 20
1222.114513
 30
-15.92049
 70
    64
  0
VERTEX
  8
I-FLU
  5
8A3
 10
114.073389
 20
1222.114513
 30
-13.985695
 70
    64
  0
VERTEX
  8
I-FLU
  5
8A4
 10
119.95154
 20
1222.114513
 30
-10.843758
 70
    64
  0
VERTEX
  8
I-FLU
  5
8A5
 10
125.103783
 20
1222.114513
 30
-6.615422
 70
    64
  0
SEQEND
  8
I-FLU
  5
8A6
  0
POLYLINE
  8
I-FLU
  5
8A7
 66
     1
 10
0.0
 20
0.0
 30
0.0
 70
    16
 71
     2
 72
     9
  0
VERTEX
  8
I-FLU
  5
8A8
 10
82.020522
 20
1237.114513
 30
-6.615422
 70
    64
  0
VERTEX
  8
I-FLU
  5
8A9
 10
86.294249
 20
1237.114513
 30
-9.453016
 70
    64
  0
VERTEX
  8
I-FLU
  5
8AA
 10
90.981169
 20
1237.114513
 30
-11.538554
 70
    64
  0
VERTEX
  8
I-FLU
  5
8AB
 10
95.950146
 20
1237.114513
 30
-12.813683
 70
    64
  0
VERTEX
  8
I-FLU
  5
8AC
 10
101.062152
 20
1237.114513
 30
-13.242728
 70
    64
  0
VERTEX
  8
I-FLU
  5
8AD
 10
106.174159
 20
1237.114513
 30
-12.813683
 70
    64
  0
VERTEX
  8
I-FLU
  5
8AE
 10
111.143136
 20
1237.114513
 30
-11.538554
 70
    64
  0
VERTEX
  8
I-FLU
  5
8AF
 10
115.830056
 20
1237.114513
 30
-9.453016
 70
    64
  0
VERTEX
  8
I-FLU
  5
8B0
 10
120.103783
 20
1237.114513
 30
-6.615422
 70
    64
  0
VERTEX
  8
I-FLU
  5
8B1
 10
77.020522
 20
1237.114513
 30
-6.615422
 70
    64
  0
VERTEX
  8
I-FLU
  5
8B2
 10
82.172764
 20
1237.114513
 30
-10.843758
 70
    64
  0
VERTEX
  8
I-FLU
  5
8B3
 10
88.050916
 20
1237.114513
 30
-13.985695
 70
    64
  0
VERTEX
  8
I-FLU
  5
8B4
 10
94.429081
 20
1237.114513
 30
-15.92049
 70
    64
  0
VERTEX
  8
I-FLU
  5
8B5
 10
101.062152
 20
1237.114513
 30
-16.573791
 70
    64
  0
VERTEX
  8
I-FLU
  5
8B6
 10
107.695223
 20
1237.114513
 30
-15.92049
 70
    64
  0
VERTEX
  8
I-FLU
  5
8B7
 10
114.073389
 20
1237.114513
 30
-13.985695
 70
    64
  0
VERTEX
  8
I-FLU
  5
8B8
 10
119.95154
 20
1237.114513
 30
-10.843758
 70
    64
  0
VERTEX
  8
I-FLU
  5
8B9
 10
125.103783
 20
1237.114513
 30
-6.615422
 70
    64
  0
SEQEND
  8
I-FLU
  5
8BA
  0
POLYLINE
  8
I-FLU
  5
8BB
 66
     1
 10
0.0
 20
0.0
 30
0.0
 70
    16
 71
     2
 72
     9
  0
VERTEX
  8
I-FLU
  5
8BC
 10
82.020522
 20
1252.114513
 30
-6.615422
 70
    64
  0
VERTEX
  8
I-FLU
  5
8BD
 10
86.294249
 20
1252.114513
 30
-9.453016
 70
    64
  0
VERTEX
  8
I-FLU
  5
8BE
 10
90.981169
 20
1252.114513
 30
-11.538554
 70
    64
  0
VERTEX
  8
I-FLU
  5
8BF
 10
95.950146
 20
1252.114513
 30
-12.813683
 70
    64
  0
VERTEX
  8
I-FLU
  5
8C0
 10
101.062152
 20
1252.114513
 30
-13.242728
 70
    64
  0
VERTEX
  8
I-FLU
  5
8C1
 10
106.174159
 20
1252.114513
 30
-12.813683
 70
    64
  0
VERTEX
  8
I-FLU
  5
8C2
 10
111.143136
 20
1252.114513
 30
-11.538554
 70
    64
  0
VERTEX
  8
I-FLU
  5
8C3
 10
115.830056
 20
1252.114513
 30
-9.453016
 70
    64
  0
VERTEX
  8
I-FLU
  5
8C4
 10
120.103783
 20
1252.114513
 30
-6.615422
 70
    64
  0
VERTEX
  8
I-FLU
  5
8C5
 10
77.020522
 20
1252.114513
 30
-6.615422
 70
    64
  0
VERTEX
  8
I-FLU
  5
8C6
 10
82.172764
 20
1252.114513
 30
-10.843758
 70
    64
  0
VERTEX
  8
I-FLU
  5
8C7
 10
88.050916
 20
1252.114513
 30
-13.985695
 70
    64
  0
VERTEX
  8
I-FLU
  5
8C8
 10
94.429081
 20
1252.114513
 30
-15.92049
 70
    64
  0
VERTEX
  8
I-FLU
  5
8C9
 10
101.062152
 20
1252.114513
 30
-16.573791
 70
    64
  0
VERTEX
  8
I-FLU
  5
8CA
 10
107.695223
 20
1252.114513
 30
-15.92049
 70
    64
  0
VERTEX
  8
I-FLU
  5
8CB
 10
114.073389
 20
1252.114513
 30
-13.985695
 70
    64
  0
VERTEX
  8
I-FLU
  5
8CC
 10
119.95154
 20
1252.114513
 30
-10.843758
 70
    64
  0
VERTEX
  8
I-FLU
  5
8CD
 10
125.103783
 20
1252.114513
 30
-6.615422
 70
    64
  0
SEQEND
  8
I-FLU
  5
8CE
  0
POLYLINE
  8
I-FLU
  5
8CF
 66
     1
 10
0.0
 20
0.0
 30
0.0
 70
    16
 71
     2
 72
     9
  0
VERTEX
  8
I-FLU
  5
8D0
 10
82.020522
 20
1267.114513
 30
-6.615422
 70
    64
  0
VERTEX
  8
I-FLU
  5
8D1
 10
86.294249
 20
1267.114513
 30
-9.453016
 70
    64
  0
VERTEX
  8
I-FLU
  5
8D2
 10
90.981169
 20
1267.114513
 30
-11.538554
 70
    64
  0
VERTEX
  8
I-FLU
  5
8D3
 10
95.950146
 20
1267.114513
 30
-12.813683
 70
    64
  0
VERTEX
  8
I-FLU
  5
8D4
 10
101.062152
 20
1267.114513
 30
-13.242728
 70
    64
  0
VERTEX
  8
I-FLU
  5
8D5
 10
106.174159
 20
1267.114513
 30
-12.813683
 70
    64
  0
VERTEX
  8
I-FLU
  5
8D6
 10
111.143136
 20
1267.114513
 30
-11.538554
 70
    64
  0
VERTEX
  8
I-FLU
  5
8D7
 10
115.830056
 20
1267.114513
 30
-9.453016
 70
    64
  0
VERTEX
  8
I-FLU
  5
8D8
 10
120.103783
 20
1267.114513
 30
-6.615422
 70
    64
  0
VERTEX
  8
I-FLU
  5
8D9
 10
77.020522
 20
1267.114513
 30
-6.615422
 70
    64
  0
VERTEX
  8
I-FLU
  5
8DA
 10
82.172764
 20
1267.114513
 30
-10.843758
 70
    64
  0
VERTEX
  8
I-FLU
  5
8DB
 10
88.050916
 20
1267.114513
 30
-13.985695
 70
    64
  0
VERTEX
  8
I-FLU
  5
8DC
 10
94.429081
 20
1267.114513
 30
-15.92049
 70
    64
  0
VERTEX
  8
I-FLU
  5
8DD
 10
101.062152
 20
1267.114513
 30
-16.573791
 70
    64
  0
VERTEX
  8
I-FLU
  5
8DE
 10
107.695223
 20
1267.114513
 30
-15.92049
 70
    64
  0
VERTEX
  8
I-FLU
  5
8DF
 10
114.073389
 20
1267.114513
 30
-13.985695
 70
    64
  0
VERTEX
  8
I-FLU
  5
8E0
 10
119.95154
 20
1267.114513
 30
-10.843758
 70
    64
  0
VERTEX
  8
I-FLU
  5
8E1
 10
125.103783
 20
1267.114513
 30
-6.615422
 70
    64
  0
SEQEND
  8
I-FLU
  5
8E2
  0
POLYLINE
  8
I-FLU
  5
8E3
 66
     1
 10
0.0
 20
0.0
 30
0.0
 70
    16
 71
     2
 72
     9
  0
VERTEX
  8
I-FLU
  5
8E4
 10
82.020522
 20
1282.114513
 30
-6.615422
 70
    64
  0
VERTEX
  8
I-FLU
  5
8E5
 10
86.294249
 20
1282.114513
 30
-9.453016
 70
    64
  0
VERTEX
  8
I-FLU
  5
8E6
 10
90.981169
 20
1282.114513
 30
-11.538554
 70
    64
  0
VERTEX
  8
I-FLU
  5
8E7
 10
95.950146
 20
1282.114513
 30
-12.813683
 70
    64
  0
VERTEX
  8
I-FLU
  5
8E8
 10
101.062152
 20
1282.114513
 30
-13.242728
 70
    64
  0
VERTEX
  8
I-FLU
  5
8E9
 10
106.174159
 20
1282.114513
 30
-12.813683
 70
    64
  0
VERTEX
  8
I-FLU
  5
8EA
 10
111.143136
 20
1282.114513
 30
-11.538554
 70
    64
  0
VERTEX
  8
I-FLU
  5
8EB
 10
115.830056
 20
1282.114513
 30
-9.453016
 70
    64
  0
VERTEX
  8
I-FLU
  5
8EC
 10
120.103783
 20
1282.114513
 30
-6.615422
 70
    64
  0
VERTEX
  8
I-FLU
  5
8ED
 10
77.020522
 20
1282.114513
 30
-6.615422
 70
    64
  0
VERTEX
  8
I-FLU
  5
8EE
 10
82.172764
 20
1282.114513
 30
-10.843758
 70
    64
  0
VERTEX
  8
I-FLU
  5
8EF
 10
88.050916
 20
1282.114513
 30
-13.985695
 70
    64
  0
VERTEX
  8
I-FLU
  5
8F0
 10
94.429081
 20
1282.114513
 30
-15.92049
 70
    64
  0
VERTEX
  8
I-FLU
  5
8F1
 10
101.062152
 20
1282.114513
 30
-16.573791
 70
    64
  0
VERTEX
  8
I-FLU
  5
8F2
 10
107.695223
 20
1282.114513
 30
-15.92049
 70
    64
  0
VERTEX
  8
I-FLU
  5
8F3
 10
114.073389
 20
1282.114513
 30
-13.985695
 70
    64
  0
VERTEX
  8
I-FLU
  5
8F4
 10
119.95154
 20
1282.114513
 30
-10.843758
 70
    64
  0
VERTEX
  8
I-FLU
  5
8F5
 10
125.103783
 20
1282.114513
 30
-6.615422
 70
    64
  0
SEQEND
  8
I-FLU
  5
8F6
  0
POLYLINE
  8
I-FLU
  5
8F7
 66
     1
 10
0.0
 20
0.0
 30
0.0
 70
    16
 71
     2
 72
     9
  0
VERTEX
  8
I-FLU
  5
8F8
 10
82.020522
 20
1297.114513
 30
-6.615422
 70
    64
  0
VERTEX
  8
I-FLU
  5
8F9
 10
86.294249
 20
1297.114513
 30
-9.453016
 70
    64
  0
VERTEX
  8
I-FLU
  5
8FA
 10
90.981169
 20
1297.114513
 30
-11.538554
 70
    64
  0
VERTEX
  8
I-FLU
  5
8FB
 10
95.950146
 20
1297.114513
 30
-12.813683
 70
    64
  0
VERTEX
  8
I-FLU
  5
8FC
 10
101.062152
 20
1297.114513
 30
-13.242728
 70
    64
  0
VERTEX
  8
I-FLU
  5
8FD
 10
106.174159
 20
1297.114513
 30
-12.813683
 70
    64
  0
VERTEX
  8
I-FLU
  5
8FE
 10
111.143136
 20
1297.114513
 30
-11.538554
 70
    64
  0
VERTEX
  8
I-FLU
  5
8FF
 10
115.830056
 20
1297.114513
 30
-9.453016
 70
    64
  0
VERTEX
  8
I-FLU
  5
900
 10
120.103783
 20
1297.114513
 30
-6.615422
 70
    64
  0
VERTEX
  8
I-FLU
  5
901
 10
77.020522
 20
1297.114513
 30
-6.615422
 70
    64
  0
VERTEX
  8
I-FLU
  5
902
 10
82.172764
 20
1297.114513
 30
-10.843758
 70
    64
  0
VERTEX
  8
I-FLU
  5
903
 10
88.050916
 20
1297.114513
 30
-13.985695
 70
    64
  0
VERTEX
  8
I-FLU
  5
904
 10
94.429081
 20
1297.114513
 30
-15.92049
 70
    64
  0
VERTEX
  8
I-FLU
  5
905
 10
101.062152
 20
1297.114513
 30
-16.573791
 70
    64
  0
VERTEX
  8
I-FLU
  5
906
 10
107.695223
 20
1297.114513
 30
-15.92049
 70
    64
  0
VERTEX
  8
I-FLU
  5
907
 10
114.073389
 20
1297.114513
 30
-13.985695
 70
    64
  0
VERTEX
  8
I-FLU
  5
908
 10
119.95154
 20
1297.114513
 30
-10.843758
 70
    64
  0
VERTEX
  8
I-FLU
  5
909
 10
125.103783
 20
1297.114513
 30
-6.615422
 70
    64
  0
SEQEND
  8
I-FLU
  5
90A
  0
POLYLINE
  8
I-FLU
  5
90B
 66
     1
 10
0.0
 20
0.0
 30
0.0
 70
    16
 71
     2
 72
     9
  0
VERTEX
  8
I-FLU
  5
90C
 10
82.020522
 20
1312.114513
 30
-6.615422
 70
    64
  0
VERTEX
  8
I-FLU
  5
90D
 10
86.294249
 20
1312.114513
 30
-9.453016
 70
    64
  0
VERTEX
  8
I-FLU
  5
90E
 10
90.981169
 20
1312.114513
 30
-11.538554
 70
    64
  0
VERTEX
  8
I-FLU
  5
90F
 10
95.950146
 20
1312.114513
 30
-12.813683
 70
    64
  0
VERTEX
  8
I-FLU
  5
910
 10
101.062152
 20
1312.114513
 30
-13.242728
 70
    64
  0
VERTEX
  8
I-FLU
  5
911
 10
106.174159
 20
1312.114513
 30
-12.813683
 70
    64
  0
VERTEX
  8
I-FLU
  5
912
 10
111.143136
 20
1312.114513
 30
-11.538554
 70
    64
  0
VERTEX
  8
I-FLU
  5
913
 10
115.830056
 20
1312.114513
 30
-9.453016
 70
    64
  0
VERTEX
  8
I-FLU
  5
914
 10
120.103783
 20
1312.114513
 30
-6.615422
 70
    64
  0
VERTEX
  8
I-FLU
  5
915
 10
77.020522
 20
1312.114513
 30
-6.615422
 70
    64
  0
VERTEX
  8
I-FLU
  5
916
 10
82.172764
 20
1312.114513
 30
-10.843758
 70
    64
  0
VERTEX
  8
I-FLU
  5
917
 10
88.050916
 20
1312.114513
 30
-13.985695
 70
    64
  0
VERTEX
  8
I-FLU
  5
918
 10
94.429081
 20
1312.114513
 30
-15.92049
 70
    64
  0
VERTEX
  8
I-FLU
  5
919
 10
101.062152
 20
1312.114513
 30
-16.573791
 70
    64
  0
VERTEX
  8
I-FLU
  5
91A
 10
107.695223
 20
1312.114513
 30
-15.92049
 70
    64
  0
VERTEX
  8
I-FLU
  5
91B
 10
114.073389
 20
1312.114513
 30
-13.985695
 70
    64
  0
VERTEX
  8
I-FLU
  5
91C
 10
119.95154
 20
1312.114513
 30
-10.843758
 70
    64
  0
VERTEX
  8
I-FLU
  5
91D
 10
125.103783
 20
1312.114513
 30
-6.615422
 70
    64
  0
SEQEND
  8
I-FLU
  5
91E
  0
POLYLINE
  8
I-FLU
  5
91F
 66
     1
 10
0.0
 20
0.0
 30
0.0
 70
    16
 71
     2
 72
     9
  0
VERTEX
  8
I-FLU
  5
920
 10
82.020522
 20
1327.114513
 30
-6.615422
 70
    64
  0
VERTEX
  8
I-FLU
  5
921
 10
86.294249
 20
1327.114513
 30
-9.453016
 70
    64
  0
VERTEX
  8
I-FLU
  5
922
 10
90.981169
 20
1327.114513
 30
-11.538554
 70
    64
  0
VERTEX
  8
I-FLU
  5
923
 10
95.950146
 20
1327.114513
 30
-12.813683
 70
    64
  0
VERTEX
  8
I-FLU
  5
924
 10
101.062152
 20
1327.114513
 30
-13.242728
 70
    64
  0
VERTEX
  8
I-FLU
  5
925
 10
106.174159
 20
1327.114513
 30
-12.813683
 70
    64
  0
VERTEX
  8
I-FLU
  5
926
 10
111.143136
 20
1327.114513
 30
-11.538554
 70
    64
  0
VERTEX
  8
I-FLU
  5
927
 10
115.830056
 20
1327.114513
 30
-9.453016
 70
    64
  0
VERTEX
  8
I-FLU
  5
928
 10
120.103783
 20
1327.114513
 30
-6.615422
 70
    64
  0
VERTEX
  8
I-FLU
  5
929
 10
77.020522
 20
1327.114513
 30
-6.615422
 70
    64
  0
VERTEX
  8
I-FLU
  5
92A
 10
82.172764
 20
1327.114513
 30
-10.843758
 70
    64
  0
VERTEX
  8
I-FLU
  5
92B
 10
88.050916
 20
1327.114513
 30
-13.985695
 70
    64
  0
VERTEX
  8
I-FLU
  5
92C
 10
94.429081
 20
1327.114513
 30
-15.92049
 70
    64
  0
VERTEX
  8
I-FLU
  5
92D
 10
101.062152
 20
1327.114513
 30
-16.573791
 70
    64
  0
VERTEX
  8
I-FLU
  5
92E
 10
107.695223
 20
1327.114513
 30
-15.92049
 70
    64
  0
VERTEX
  8
I-FLU
  5
92F
 10
114.073389
 20
1327.114513
 30
-13.985695
 70
    64
  0
VERTEX
  8
I-FLU
  5
930
 10
119.95154
 20
1327.114513
 30
-10.843758
 70
    64
  0
VERTEX
  8
I-FLU
  5
931
 10
125.103783
 20
1327.114513
 30
-6.615422
 70
    64
  0
SEQEND
  8
I-FLU
  5
932
  0
POLYLINE
  8
I-FLU
  5
933
 66
     1
 10
0.0
 20
0.0
 30
0.0
 70
    16
 71
     2
 72
     9
  0
VERTEX
  8
I-FLU
  5
934
 10
82.020522
 20
1342.114513
 30
-6.615422
 70
    64
  0
VERTEX
  8
I-FLU
  5
935
 10
86.294249
 20
1342.114513
 30
-9.453016
 70
    64
  0
VERTEX
  8
I-FLU
  5
936
 10
90.981169
 20
1342.114513
 30
-11.538554
 70
    64
  0
VERTEX
  8
I-FLU
  5
937
 10
95.950146
 20
1342.114513
 30
-12.813683
 70
    64
  0
VERTEX
  8
I-FLU
  5
938
 10
101.062152
 20
1342.114513
 30
-13.242728
 70
    64
  0
VERTEX
  8
I-FLU
  5
939
 10
106.174159
 20
1342.114513
 30
-12.813683
 70
    64
  0
VERTEX
  8
I-FLU
  5
93A
 10
111.143136
 20
1342.114513
 30
-11.538554
 70
    64
  0
VERTEX
  8
I-FLU
  5
93B
 10
115.830056
 20
1342.114513
 30
-9.453016
 70
    64
  0
VERTEX
  8
I-FLU
  5
93C
 10
120.103783
 20
1342.114513
 30
-6.615422
 70
    64
  0
VERTEX
  8
I-FLU
  5
93D
 10
77.020522
 20
1342.114513
 30
-6.615422
 70
    64
  0
VERTEX
  8
I-FLU
  5
93E
 10
82.172764
 20
1342.114513
 30
-10.843758
 70
    64
  0
VERTEX
  8
I-FLU
  5
93F
 10
88.050916
 20
1342.114513
 30
-13.985695
 70
    64
  0
VERTEX
  8
I-FLU
  5
940
 10
94.429081
 20
1342.114513
 30
-15.92049
 70
    64
  0
VERTEX
  8
I-FLU
  5
941
 10
101.062152
 20
1342.114513
 30
-16.573791
 70
    64
  0
VERTEX
  8
I-FLU
  5
942
 10
107.695223
 20
1342.114513
 30
-15.92049
 70
    64
  0
VERTEX
  8
I-FLU
  5
943
 10
114.073389
 20
1342.114513
 30
-13.985695
 70
    64
  0
VERTEX
  8
I-FLU
  5
944
 10
119.95154
 20
1342.114513
 30
-10.843758
 70
    64
  0
VERTEX
  8
I-FLU
  5
945
 10
125.103783
 20
1342.114513
 30
-6.615422
 70
    64
  0
SEQEND
  8
I-FLU
  5
946
  0
POLYLINE
  8
I-FLU
  5
947
 66
     1
 10
0.0
 20
0.0
 30
0.0
 70
    16
 71
     2
 72
     9
  0
VERTEX
  8
I-FLU
  5
948
 10
82.020522
 20
1357.114513
 30
-6.615422
 70
    64
  0
VERTEX
  8
I-FLU
  5
949
 10
86.294249
 20
1357.114513
 30
-9.453016
 70
    64
  0
VERTEX
  8
I-FLU
  5
94A
 10
90.981169
 20
1357.114513
 30
-11.538554
 70
    64
  0
VERTEX
  8
I-FLU
  5
94B
 10
95.950146
 20
1357.114513
 30
-12.813683
 70
    64
  0
VERTEX
  8
I-FLU
  5
94C
 10
101.062152
 20
1357.114513
 30
-13.242728
 70
    64
  0
VERTEX
  8
I-FLU
  5
94D
 10
106.174159
 20
1357.114513
 30
-12.813683
 70
    64
  0
VERTEX
  8
I-FLU
  5
94E
 10
111.143136
 20
1357.114513
 30
-11.538554
 70
    64
  0
VERTEX
  8
I-FLU
  5
94F
 10
115.830056
 20
1357.114513
 30
-9.453016
 70
    64
  0
VERTEX
  8
I-FLU
  5
950
 10
120.103783
 20
1357.114513
 30
-6.615422
 70
    64
  0
VERTEX
  8
I-FLU
  5
951
 10
77.020522
 20
1357.114513
 30
-6.615422
 70
    64
  0
VERTEX
  8
I-FLU
  5
952
 10
82.172764
 20
1357.114513
 30
-10.843758
 70
    64
  0
VERTEX
  8
I-FLU
  5
953
 10
88.050916
 20
1357.114513
 30
-13.985695
 70
    64
  0
VERTEX
  8
I-FLU
  5
954
 10
94.429081
 20
1357.114513
 30
-15.92049
 70
    64
  0
VERTEX
  8
I-FLU
  5
955
 10
101.062152
 20
1357.114513
 30
-16.573791
 70
    64
  0
VERTEX
  8
I-FLU
  5
956
 10
107.695223
 20
1357.114513
 30
-15.92049
 70
    64
  0
VERTEX
  8
I-FLU
  5
957
 10
114.073389
 20
1357.114513
 30
-13.985695
 70
    64
  0
VERTEX
  8
I-FLU
  5
958
 10
119.95154
 20
1357.114513
 30
-10.843758
 70
    64
  0
VERTEX
  8
I-FLU
  5
959
 10
125.103783
 20
1357.114513
 30
-6.615422
 70
    64
  0
SEQEND
  8
I-FLU
  5
95A
  0
POLYLINE
  8
I-FLU
  5
95B
 66
     1
 10
0.0
 20
0.0
 30
0.0
 70
    16
 71
     2
 72
     9
  0
VERTEX
  8
I-FLU
  5
95C
 10
82.020522
 20
1372.114513
 30
-6.615422
 70
    64
  0
VERTEX
  8
I-FLU
  5
95D
 10
86.294249
 20
1372.114513
 30
-9.453016
 70
    64
  0
VERTEX
  8
I-FLU
  5
95E
 10
90.981169
 20
1372.114513
 30
-11.538554
 70
    64
  0
VERTEX
  8
I-FLU
  5
95F
 10
95.950146
 20
1372.114513
 30
-12.813683
 70
    64
  0
VERTEX
  8
I-FLU
  5
960
 10
101.062152
 20
1372.114513
 30
-13.242728
 70
    64
  0
VERTEX
  8
I-FLU
  5
961
 10
106.174159
 20
1372.114513
 30
-12.813683
 70
    64
  0
VERTEX
  8
I-FLU
  5
962
 10
111.143136
 20
1372.114513
 30
-11.538554
 70
    64
  0
VERTEX
  8
I-FLU
  5
963
 10
115.830056
 20
1372.114513
 30
-9.453016
 70
    64
  0
VERTEX
  8
I-FLU
  5
964
 10
120.103783
 20
1372.114513
 30
-6.615422
 70
    64
  0
VERTEX
  8
I-FLU
  5
965
 10
77.020522
 20
1372.114513
 30
-6.615422
 70
    64
  0
VERTEX
  8
I-FLU
  5
966
 10
82.172764
 20
1372.114513
 30
-10.843758
 70
    64
  0
VERTEX
  8
I-FLU
  5
967
 10
88.050916
 20
1372.114513
 30
-13.985695
 70
    64
  0
VERTEX
  8
I-FLU
  5
968
 10
94.429081
 20
1372.114513
 30
-15.92049
 70
    64
  0
VERTEX
  8
I-FLU
  5
969
 10
101.062152
 20
1372.114513
 30
-16.573791
 70
    64
  0
VERTEX
  8
I-FLU
  5
96A
 10
107.695223
 20
1372.114513
 30
-15.92049
 70
    64
  0
VERTEX
  8
I-FLU
  5
96B
 10
114.073389
 20
1372.114513
 30
-13.985695
 70
    64
  0
VERTEX
  8
I-FLU
  5
96C
 10
119.95154
 20
1372.114513
 30
-10.843758
 70
    64
  0
VERTEX
  8
I-FLU
  5
96D
 10
125.103783
 20
1372.114513
 30
-6.615422
 70
    64
  0
SEQEND
  8
I-FLU
  5
96E
  0
POLYLINE
  8
I-FLU
  5
96F
 66
     1
 10
0.0
 20
0.0
 30
0.0
 70
    16
 71
     2
 72
     9
  0
VERTEX
  8
I-FLU
  5
970
 10
82.020522
 20
1387.114513
 30
-6.615422
 70
    64
  0
VERTEX
  8
I-FLU
  5
971
 10
86.294249
 20
1387.114513
 30
-9.453016
 70
    64
  0
VERTEX
  8
I-FLU
  5
972
 10
90.981169
 20
1387.114513
 30
-11.538554
 70
    64
  0
VERTEX
  8
I-FLU
  5
973
 10
95.950146
 20
1387.114513
 30
-12.813683
 70
    64
  0
VERTEX
  8
I-FLU
  5
974
 10
101.062152
 20
1387.114513
 30
-13.242728
 70
    64
  0
VERTEX
  8
I-FLU
  5
975
 10
106.174159
 20
1387.114513
 30
-12.813683
 70
    64
  0
VERTEX
  8
I-FLU
  5
976
 10
111.143136
 20
1387.114513
 30
-11.538554
 70
    64
  0
VERTEX
  8
I-FLU
  5
977
 10
115.830056
 20
1387.114513
 30
-9.453016
 70
    64
  0
VERTEX
  8
I-FLU
  5
978
 10
120.103783
 20
1387.114513
 30
-6.615422
 70
    64
  0
VERTEX
  8
I-FLU
  5
979
 10
77.020522
 20
1387.114513
 30
-6.615422
 70
    64
  0
VERTEX
  8
I-FLU
  5
97A
 10
82.172764
 20
1387.114513
 30
-10.843758
 70
    64
  0
VERTEX
  8
I-FLU
  5
97B
 10
88.050916
 20
1387.114513
 30
-13.985695
 70
    64
  0
VERTEX
  8
I-FLU
  5
97C
 10
94.429081
 20
1387.114513
 30
-15.92049
 70
    64
  0
VERTEX
  8
I-FLU
  5
97D
 10
101.062152
 20
1387.114513
 30
-16.573791
 70
    64
  0
VERTEX
  8
I-FLU
  5
97E
 10
107.695223
 20
1387.114513
 30
-15.92049
 70
    64
  0
VERTEX
  8
I-FLU
  5
97F
 10
114.073389
 20
1387.114513
 30
-13.985695
 70
    64
  0
VERTEX
  8
I-FLU
  5
980
 10
119.95154
 20
1387.114513
 30
-10.843758
 70
    64
  0
VERTEX
  8
I-FLU
  5
981
 10
125.103783
 20
1387.114513
 30
-6.615422
 70
    64
  0
SEQEND
  8
I-FLU
  5
982
  0
POLYLINE
  8
I-FLU
  5
983
 66
     1
 10
0.0
 20
0.0
 30
0.0
 70
    16
 71
     2
 72
     9
  0
VERTEX
  8
I-FLU
  5
984
 10
82.020522
 20
1402.114513
 30
-6.615422
 70
    64
  0
VERTEX
  8
I-FLU
  5
985
 10
86.294249
 20
1402.114513
 30
-9.453016
 70
    64
  0
VERTEX
  8
I-FLU
  5
986
 10
90.981169
 20
1402.114513
 30
-11.538554
 70
    64
  0
VERTEX
  8
I-FLU
  5
987
 10
95.950146
 20
1402.114513
 30
-12.813683
 70
    64
  0
VERTEX
  8
I-FLU
  5
988
 10
101.062152
 20
1402.114513
 30
-13.242728
 70
    64
  0
VERTEX
  8
I-FLU
  5
989
 10
106.174159
 20
1402.114513
 30
-12.813683
 70
    64
  0
VERTEX
  8
I-FLU
  5
98A
 10
111.143136
 20
1402.114513
 30
-11.538554
 70
    64
  0
VERTEX
  8
I-FLU
  5
98B
 10
115.830056
 20
1402.114513
 30
-9.453016
 70
    64
  0
VERTEX
  8
I-FLU
  5
98C
 10
120.103783
 20
1402.114513
 30
-6.615422
 70
    64
  0
VERTEX
  8
I-FLU
  5
98D
 10
77.020522
 20
1402.114513
 30
-6.615422
 70
    64
  0
VERTEX
  8
I-FLU
  5
98E
 10
82.172764
 20
1402.114513
 30
-10.843758
 70
    64
  0
VERTEX
  8
I-FLU
  5
98F
 10
88.050916
 20
1402.114513
 30
-13.985695
 70
    64
  0
VERTEX
  8
I-FLU
  5
990
 10
94.429081
 20
1402.114513
 30
-15.92049
 70
    64
  0
VERTEX
  8
I-FLU
  5
991
 10
101.062152
 20
1402.114513
 30
-16.573791
 70
    64
  0
VERTEX
  8
I-FLU
  5
992
 10
107.695223
 20
1402.114513
 30
-15.92049
 70
    64
  0
VERTEX
  8
I-FLU
  5
993
 10
114.073389
 20
1402.114513
 30
-13.985695
 70
    64
  0
VERTEX
  8
I-FLU
  5
994
 10
119.95154
 20
1402.114513
 30
-10.843758
 70
    64
  0
VERTEX
  8
I-FLU
  5
995
 10
125.103783
 20
1402.114513
 30
-6.615422
 70
    64
  0
SEQEND
  8
I-FLU
  5
996
  0
POLYLINE
  8
I-FLU
  5
997
 66
     1
 10
0.0
 20
0.0
 30
0.0
 70
    16
 71
     2
 72
     9
  0
VERTEX
  8
I-FLU
  5
998
 10
82.020522
 20
1417.114513
 30
-6.615422
 70
    64
  0
VERTEX
  8
I-FLU
  5
999
 10
86.294249
 20
1417.114513
 30
-9.453016
 70
    64
  0
VERTEX
  8
I-FLU
  5
99A
 10
90.981169
 20
1417.114513
 30
-11.538554
 70
    64
  0
VERTEX
  8
I-FLU
  5
99B
 10
95.950146
 20
1417.114513
 30
-12.813683
 70
    64
  0
VERTEX
  8
I-FLU
  5
99C
 10
101.062152
 20
1417.114513
 30
-13.242728
 70
    64
  0
VERTEX
  8
I-FLU
  5
99D
 10
106.174159
 20
1417.114513
 30
-12.813683
 70
    64
  0
VERTEX
  8
I-FLU
  5
99E
 10
111.143136
 20
1417.114513
 30
-11.538554
 70
    64
  0
VERTEX
  8
I-FLU
  5
99F
 10
115.830056
 20
1417.114513
 30
-9.453016
 70
    64
  0
VERTEX
  8
I-FLU
  5
9A0
 10
120.103783
 20
1417.114513
 30
-6.615422
 70
    64
  0
VERTEX
  8
I-FLU
  5
9A1
 10
77.020522
 20
1417.114513
 30
-6.615422
 70
    64
  0
VERTEX
  8
I-FLU
  5
9A2
 10
82.172764
 20
1417.114513
 30
-10.843758
 70
    64
  0
VERTEX
  8
I-FLU
  5
9A3
 10
88.050916
 20
1417.114513
 30
-13.985695
 70
    64
  0
VERTEX
  8
I-FLU
  5
9A4
 10
94.429081
 20
1417.114513
 30
-15.92049
 70
    64
  0
VERTEX
  8
I-FLU
  5
9A5
 10
101.062152
 20
1417.114513
 30
-16.573791
 70
    64
  0
VERTEX
  8
I-FLU
  5
9A6
 10
107.695223
 20
1417.114513
 30
-15.92049
 70
    64
  0
VERTEX
  8
I-FLU
  5
9A7
 10
114.073389
 20
1417.114513
 30
-13.985695
 70
    64
  0
VERTEX
  8
I-FLU
  5
9A8
 10
119.95154
 20
1417.114513
 30
-10.843758
 70
    64
  0
VERTEX
  8
I-FLU
  5
9A9
 10
125.103783
 20
1417.114513
 30
-6.615422
 70
    64
  0
SEQEND
  8
I-FLU
  5
9AA
  0
POLYLINE
  8
I-FLU
  5
9AB
 66
     1
 10
0.0
 20
0.0
 30
0.0
 70
    16
 71
     2
 72
     9
  0
VERTEX
  8
I-FLU
  5
9AC
 10
82.020522
 20
1432.114513
 30
-6.615422
 70
    64
  0
VERTEX
  8
I-FLU
  5
9AD
 10
86.294249
 20
1432.114513
 30
-9.453016
 70
    64
  0
VERTEX
  8
I-FLU
  5
9AE
 10
90.981169
 20
1432.114513
 30
-11.538554
 70
    64
  0
VERTEX
  8
I-FLU
  5
9AF
 10
95.950146
 20
1432.114513
 30
-12.813683
 70
    64
  0
VERTEX
  8
I-FLU
  5
9B0
 10
101.062152
 20
1432.114513
 30
-13.242728
 70
    64
  0
VERTEX
  8
I-FLU
  5
9B1
 10
106.174159
 20
1432.114513
 30
-12.813683
 70
    64
  0
VERTEX
  8
I-FLU
  5
9B2
 10
111.143136
 20
1432.114513
 30
-11.538554
 70
    64
  0
VERTEX
  8
I-FLU
  5
9B3
 10
115.830056
 20
1432.114513
 30
-9.453016
 70
    64
  0
VERTEX
  8
I-FLU
  5
9B4
 10
120.103783
 20
1432.114513
 30
-6.615422
 70
    64
  0
VERTEX
  8
I-FLU
  5
9B5
 10
77.020522
 20
1432.114513
 30
-6.615422
 70
    64
  0
VERTEX
  8
I-FLU
  5
9B6
 10
82.172764
 20
1432.114513
 30
-10.843758
 70
    64
  0
VERTEX
  8
I-FLU
  5
9B7
 10
88.050916
 20
1432.114513
 30
-13.985695
 70
    64
  0
VERTEX
  8
I-FLU
  5
9B8
 10
94.429081
 20
1432.114513
 30
-15.92049
 70
    64
  0
VERTEX
  8
I-FLU
  5
9B9
 10
101.062152
 20
1432.114513
 30
-16.573791
 70
    64
  0
VERTEX
  8
I-FLU
  5
9BA
 10
107.695223
 20
1432.114513
 30
-15.92049
 70
    64
  0
VERTEX
  8
I-FLU
  5
9BB
 10
114.073389
 20
1432.114513
 30
-13.985695
 70
    64
  0
VERTEX
  8
I-FLU
  5
9BC
 10
119.95154
 20
1432.114513
 30
-10.843758
 70
    64
  0
VERTEX
  8
I-FLU
  5
9BD
 10
125.103783
 20
1432.114513
 30
-6.615422
 70
    64
  0
SEQEND
  8
I-FLU
  5
9BE
  0
POLYLINE
  8
I-FLU
  5
9BF
 66
     1
 10
0.0
 20
0.0
 30
0.0
 70
    16
 71
     2
 72
     9
  0
VERTEX
  8
I-FLU
  5
9C0
 10
82.020522
 20
1447.114513
 30
-6.615422
 70
    64
  0
VERTEX
  8
I-FLU
  5
9C1
 10
86.294249
 20
1447.114513
 30
-9.453016
 70
    64
  0
VERTEX
  8
I-FLU
  5
9C2
 10
90.981169
 20
1447.114513
 30
-11.538554
 70
    64
  0
VERTEX
  8
I-FLU
  5
9C3
 10
95.950146
 20
1447.114513
 30
-12.813683
 70
    64
  0
VERTEX
  8
I-FLU
  5
9C4
 10
101.062152
 20
1447.114513
 30
-13.242728
 70
    64
  0
VERTEX
  8
I-FLU
  5
9C5
 10
106.174159
 20
1447.114513
 30
-12.813683
 70
    64
  0
VERTEX
  8
I-FLU
  5
9C6
 10
111.143136
 20
1447.114513
 30
-11.538554
 70
    64
  0
VERTEX
  8
I-FLU
  5
9C7
 10
115.830056
 20
1447.114513
 30
-9.453016
 70
    64
  0
VERTEX
  8
I-FLU
  5
9C8
 10
120.103783
 20
1447.114513
 30
-6.615422
 70
    64
  0
VERTEX
  8
I-FLU
  5
9C9
 10
77.020522
 20
1447.114513
 30
-6.615422
 70
    64
  0
VERTEX
  8
I-FLU
  5
9CA
 10
82.172764
 20
1447.114513
 30
-10.843758
 70
    64
  0
VERTEX
  8
I-FLU
  5
9CB
 10
88.050916
 20
1447.114513
 30
-13.985695
 70
    64
  0
VERTEX
  8
I-FLU
  5
9CC
 10
94.429081
 20
1447.114513
 30
-15.92049
 70
    64
  0
VERTEX
  8
I-FLU
  5
9CD
 10
101.062152
 20
1447.114513
 30
-16.573791
 70
    64
  0
VERTEX
  8
I-FLU
  5
9CE
 10
107.695223
 20
1447.114513
 30
-15.92049
 70
    64
  0
VERTEX
  8
I-FLU
  5
9CF
 10
114.073389
 20
1447.114513
 30
-13.985695
 70
    64
  0
VERTEX
  8
I-FLU
  5
9D0
 10
119.95154
 20
1447.114513
 30
-10.843758
 70
    64
  0
VERTEX
  8
I-FLU
  5
9D1
 10
125.103783
 20
1447.114513
 30
-6.615422
 70
    64
  0
SEQEND
  8
I-FLU
  5
9D2
  0
POLYLINE
  8
I-FLU
  5
9D3
 66
     1
 10
0.0
 20
0.0
 30
0.0
 70
    16
 71
     2
 72
     9
  0
VERTEX
  8
I-FLU
  5
9D4
 10
82.020522
 20
1462.114513
 30
-6.615422
 70
    64
  0
VERTEX
  8
I-FLU
  5
9D5
 10
86.294249
 20
1462.114513
 30
-9.453016
 70
    64
  0
VERTEX
  8
I-FLU
  5
9D6
 10
90.981169
 20
1462.114513
 30
-11.538554
 70
    64
  0
VERTEX
  8
I-FLU
  5
9D7
 10
95.950146
 20
1462.114513
 30
-12.813683
 70
    64
  0
VERTEX
  8
I-FLU
  5
9D8
 10
101.062152
 20
1462.114513
 30
-13.242728
 70
    64
  0
VERTEX
  8
I-FLU
  5
9D9
 10
106.174159
 20
1462.114513
 30
-12.813683
 70
    64
  0
VERTEX
  8
I-FLU
  5
9DA
 10
111.143136
 20
1462.114513
 30
-11.538554
 70
    64
  0
VERTEX
  8
I-FLU
  5
9DB
 10
115.830056
 20
1462.114513
 30
-9.453016
 70
    64
  0
VERTEX
  8
I-FLU
  5
9DC
 10
120.103783
 20
1462.114513
 30
-6.615422
 70
    64
  0
VERTEX
  8
I-FLU
  5
9DD
 10
77.020522
 20
1462.114513
 30
-6.615422
 70
    64
  0
VERTEX
  8
I-FLU
  5
9DE
 10
82.172764
 20
1462.114513
 30
-10.843758
 70
    64
  0
VERTEX
  8
I-FLU
  5
9DF
 10
88.050916
 20
1462.114513
 30
-13.985695
 70
    64
  0
VERTEX
  8
I-FLU
  5
9E0
 10
94.429081
 20
1462.114513
 30
-15.92049
 70
    64
  0
VERTEX
  8
I-FLU
  5
9E1
 10
101.062152
 20
1462.114513
 30
-16.573791
 70
    64
  0
VERTEX
  8
I-FLU
  5
9E2
 10
107.695223
 20
1462.114513
 30
-15.92049
 70
    64
  0
VERTEX
  8
I-FLU
  5
9E3
 10
114.073389
 20
1462.114513
 30
-13.985695
 70
    64
  0
VERTEX
  8
I-FLU
  5
9E4
 10
119.95154
 20
1462.114513
 30
-10.843758
 70
    64
  0
VERTEX
  8
I-FLU
  5
9E5
 10
125.103783
 20
1462.114513
 30
-6.615422
 70
    64
  0
SEQEND
  8
I-FLU
  5
9E6
  0
ARC
  8
I-TUBE
  5
9E7
 10
101.062152
 20
17.426209
 30
-1477.114513
 40
30.668937
 50
231.619811
 51
308.380189
210
0.0
220
-1.0
230
0.0
  0
LINE
  8
I-FLU
  5
9EE
 10
77.064759
 20
-42.885487
 30
38.595175
 11
78.434735
 21
-42.885487
 31
40.053626
210
0.0
220
-1.0
230
0.0
  0
LINE
  8
I-FLU
  5
9EF
 10
123.689569
 20
-42.885487
 30
40.053626
 11
125.059546
 21
-42.885487
 31
38.595175
210
0.0
220
-1.0
230
0.0
  0
LINE
  8
I-FLU
  5
9F0
 10
125.059546
 20
-42.885487
 30
-3.742757
 11
123.689569
 21
-42.885487
 31
-5.201208
210
0.0
220
-1.0
230
0.0
  0
LINE
  8
I-FLU
  5
9F1
 10
77.064759
 20
-42.885487
 30
-3.742757
 11
78.434735
 21
-42.885487
 31
-5.201208
210
0.0
220
-1.0
230
0.0
  0
POLYLINE
  8
I-FLU
  5
9F2
 66
     1
 10
0.0
 20
0.0
 30
0.0
 70
    16
 71
     2
 72
     9
  0
VERTEX
  8
I-FLU
  5
9F3
 10
77.020522
 20
-42.885487
 30
-6.615422
 70
    64
  0
VERTEX
  8
I-FLU
  5
9F4
 10
82.172764
 20
-42.885487
 30
-10.843758
 70
    64
  0
VERTEX
  8
I-FLU
  5
9F5
 10
88.050916
 20
-42.885487
 30
-13.985695
 70
    64
  0
VERTEX
  8
I-FLU
  5
9F6
 10
94.429081
 20
-42.885487
 30
-15.92049
 70
    64
  0
VERTEX
  8
I-FLU
  5
9F7
 10
101.062152
 20
-42.885487
 30
-16.573791
 70
    64
  0
VERTEX
  8
I-FLU
  5
9F8
 10
107.695223
 20
-42.885487
 30
-15.92049
 70
    64
  0
VERTEX
  8
I-FLU
  5
9F9
 10
114.073389
 20
-42.885487
 30
-13.985695
 70
    64
  0
VERTEX
  8
I-FLU
  5
9FA
 10
119.95154
 20
-42.885487
 30
-10.843758
 70
    64
  0
VERTEX
  8
I-FLU
  5
9FB
 10
125.103783
 20
-42.885487
 30
-6.615422
 70
    64
  0
VERTEX
  8
I-FLU
  5
9FC
 10
78.434735
 20
-42.885487
 30
-5.201208
 70
    64
  0
VERTEX
  8
I-FLU
  5
9FD
 10
83.283905
 20
-42.885487
 30
-9.180819
 70
    64
  0
VERTEX
  8
I-FLU
  5
9FE
 10
88.816283
 20
-42.885487
 30
-12.137936
 70
    64
  0
VERTEX
  8
I-FLU
  5
9FF
 10
94.819262
 20
-42.885487
 30
-13.95892
 70
    64
  0
VERTEX
  8
I-FLU
  5
A00
 10
101.062152
 20
-42.885487
 30
-14.573791
 70
    64
  0
VERTEX
  8
I-FLU
  5
A01
 10
107.305043
 20
-42.885487
 30
-13.95892
 70
    64
  0
VERTEX
  8
I-FLU
  5
A02
 10
113.308022
 20
-42.885487
 30
-12.137936
 70
    64
  0
VERTEX
  8
I-FLU
  5
A03
 10
118.8404
 20
-42.885487
 30
-9.180819
 70
    64
  0
VERTEX
  8
I-FLU
  5
A04
 10
123.689569
 20
-42.885487
 30
-5.201208
 70
    64
  0
SEQEND
  8
I-FLU
  5
A05
  0
POLYLINE
  8
I-FLU
  5
A1C
 66
     1
 10
0.0
 20
0.0
 30
0.0
 70
    16
 71
     2
 72
     9
  0
VERTEX
  8
I-FLU
  5
A1D
 10
77.020522
 20
-42.885487
 30
41.46784
 70
    64
  0
VERTEX
  8
I-FLU
  5
A1E
 10
82.172764
 20
-42.885487
 30
45.696176
 70
    64
  0
VERTEX
  8
I-FLU
  5
A1F
 10
88.050916
 20
-42.885487
 30
48.838113
 70
    64
  0
VERTEX
  8
I-FLU
  5
A20
 10
94.429081
 20
-42.885487
 30
50.772909
 70
    64
  0
VERTEX
  8
I-FLU
  5
A21
 10
101.062152
 20
-42.885487
 30
51.426209
 70
    64
  0
VERTEX
  8
I-FLU
  5
A22
 10
107.695223
 20
-42.885487
 30
50.772909
 70
    64
  0
VERTEX
  8
I-FLU
  5
A23
 10
114.073389
 20
-42.885487
 30
48.838113
 70
    64
  0
VERTEX
  8
I-FLU
  5
A24
 10
119.95154
 20
-42.885487
 30
45.696176
 70
    64
  0
VERTEX
  8
I-FLU
  5
A25
 10
125.103783
 20
-42.885487
 30
41.46784
 70
    64
  0
VERTEX
  8
I-FLU
  5
A26
 10
78.434735
 20
-42.885487
 30
40.053626
 70
    64
  0
VERTEX
  8
I-FLU
  5
A27
 10
83.283905
 20
-42.885487
 30
44.033237
 70
    64
  0
VERTEX
  8
I-FLU
  5
A28
 10
88.816283
 20
-42.885487
 30
46.990354
 70
    64
  0
VERTEX
  8
I-FLU
  5
A29
 10
94.819262
 20
-42.885487
 30
48.811338
 70
    64
  0
VERTEX
  8
I-FLU
  5
A2A
 10
101.062152
 20
-42.885487
 30
49.426209
 70
    64
  0
VERTEX
  8
I-FLU
  5
A2B
 10
107.305043
 20
-42.885487
 30
48.811338
 70
    64
  0
VERTEX
  8
I-FLU
  5
A2C
 10
113.308022
 20
-42.885487
 30
46.990354
 70
    64
  0
VERTEX
  8
I-FLU
  5
A2D
 10
118.8404
 20
-42.885487
 30
44.033237
 70
    64
  0
VERTEX
  8
I-FLU
  5
A2E
 10
123.689569
 20
-42.885487
 30
40.053626
 70
    64
  0
SEQEND
  8
I-FLU
  5
A2F
  0
POLYLINE
  8
I-FLU
  5
A30
 66
     1
 10
0.0
 20
0.0
 30
0.0
 70
    16
 71
     2
 72
     5
  0
VERTEX
  8
I-FLU
  5
A31
 10
67.062152
 20
-42.885487
 30
17.426209
 70
    64
  0
VERTEX
  8
I-FLU
  5
A32
 10
67.621465
 20
-42.885487
 30
11.284514
 70
    64
  0
VERTEX
  8
I-FLU
  5
A33
 10
69.281
 20
-42.885487
 30
5.344886
 70
    64
  0
VERTEX
  8
I-FLU
  5
A34
 10
71.986159
 20
-42.885487
 30
-0.197258
 70
    64
  0
VERTEX
  8
I-FLU
  5
A35
 10
75.647939
 20
-42.885487
 30
-5.159577
 70
    64
  0
VERTEX
  8
I-FLU
  5
A36
 10
69.062152
 20
-42.885487
 30
17.426209
 70
    64
  0
VERTEX
  8
I-FLU
  5
A37
 10
69.583255
 20
-42.885487
 30
11.674774
 70
    64
  0
VERTEX
  8
I-FLU
  5
A38
 10
71.12959
 20
-42.885487
 30
6.110657
 70
    64
  0
VERTEX
  8
I-FLU
  5
A39
 10
73.650796
 20
-42.885487
 30
0.915075
 70
    64
  0
VERTEX
  8
I-FLU
  5
A3A
 10
77.064759
 20
-42.885487
 30
-3.742757
 70
    64
  0
SEQEND
  8
I-FLU
  5
A3B
  0
POLYLINE
  8
I-FLU
  5
A3C
 66
     1
 10
0.0
 20
0.0
 30
0.0
 70
    16
 71
     2
 72
     5
  0
VERTEX
  8
I-FLU
  5
A3D
 10
67.062152
 20
-42.885487
 30
17.426209
 70
    64
  0
VERTEX
  8
I-FLU
  5
A3E
 10
67.621465
 20
-42.885487
 30
23.567904
 70
    64
  0
VERTEX
  8
I-FLU
  5
A3F
 10
69.281
 20
-42.885487
 30
29.507532
 70
    64
  0
VERTEX
  8
I-FLU
  5
A40
 10
71.986159
 20
-42.885487
 30
35.049676
 70
    64
  0
VERTEX
  8
I-FLU
  5
A41
 10
75.647939
 20
-42.885487
 30
40.011995
 70
    64
  0
VERTEX
  8
I-FLU
  5
A42
 10
69.062152
 20
-42.885487
 30
17.426209
 70
    64
  0
VERTEX
  8
I-FLU
  5
A43
 10
69.583255
 20
-42.885487
 30
23.177644
 70
    64
  0
VERTEX
  8
I-FLU
  5
A44
 10
71.12959
 20
-42.885487
 30
28.741761
 70
    64
  0
VERTEX
  8
I-FLU
  5
A45
 10
73.650796
 20
-42.885487
 30
33.937343
 70
    64
  0
VERTEX
  8
I-FLU
  5
A46
 10
77.064759
 20
-42.885487
 30
38.595175
 70
    64
  0
SEQEND
  8
I-FLU
  5
A47
  0
POLYLINE
  8
I-FLU
  5
A48
 66
     1
 10
0.0
 20
0.0
 30
0.0
 70
    16
 71
     2
 72
     5
  0
VERTEX
  8
I-FLU
  5
A49
 10
135.062152
 20
-42.885487
 30
17.426209
 70
    64
  0
VERTEX
  8
I-FLU
  5
A4A
 10
134.50284
 20
-42.885487
 30
11.284514
 70
    64
  0
VERTEX
  8
I-FLU
  5
A4B
 10
132.843305
 20
-42.885487
 30
5.344886
 70
    64
  0
VERTEX
  8
I-FLU
  5
A4C
 10
130.138146
 20
-42.885487
 30
-0.197258
 70
    64
  0
VERTEX
  8
I-FLU
  5
A4D
 10
126.476366
 20
-42.885487
 30
-5.159577
 70
    64
  0
VERTEX
  8
I-FLU
  5
A4E
 10
133.062152
 20
-42.885487
 30
17.426209
 70
    64
  0
VERTEX
  8
I-FLU
  5
A4F
 10
132.54105
 20
-42.885487
 30
11.674774
 70
    64
  0
VERTEX
  8
I-FLU
  5
A50
 10
130.994715
 20
-42.885487
 30
6.110657
 70
    64
  0
VERTEX
  8
I-FLU
  5
A51
 10
128.473509
 20
-42.885487
 30
0.915075
 70
    64
  0
VERTEX
  8
I-FLU
  5
A52
 10
125.059546
 20
-42.885487
 30
-3.742757
 70
    64
  0
SEQEND
  8
I-FLU
  5
A53
  0
POLYLINE
  8
I-FLU
  5
A54
 66
     1
 10
0.0
 20
0.0
 30
0.0
 70
    16
 71
     2
 72
     5
  0
VERTEX
  8
I-FLU
  5
A55
 10
135.062152
 20
-42.885487
 30
17.426209
 70
    64
  0
VERTEX
  8
I-FLU
  5
A56
 10
134.50284
 20
-42.885487
 30
23.567904
 70
    64
  0
VERTEX
  8
I-FLU
  5
A57
 10
132.843305
 20
-42.885487
 30
29.507532
 70
    64
  0
VERTEX
  8
I-FLU
  5
A58
 10
130.138146
 20
-42.885487
 30
35.049676
 70
    64
  0
VERTEX
  8
I-FLU
  5
A59
 10
126.476366
 20
-42.885487
 30
40.011995
 70
    64
  0
VERTEX
  8
I-FLU
  5
A5A
 10
133.062152
 20
-42.885487
 30
17.426209
 70
    64
  0
VERTEX
  8
I-FLU
  5
A5B
 10
132.54105
 20
-42.885487
 30
23.177644
 70
    64
  0
VERTEX
  8
I-FLU
  5
A5C
 10
130.994715
 20
-42.885487
 30
28.741761
 70
    64
  0
VERTEX
  8
I-FLU
  5
A5D
 10
128.473509
 20
-42.885487
 30
33.937343
 70
    64
  0
VERTEX
  8
I-FLU
  5
A5E
 10
125.059546
 20
-42.885487
 30
38.595175
 70
    64
  0
SEQEND
  8
I-FLU
  5
A5F
  0
INSERT
  8
I-FLU
 62
     1
  5
A68
  2
AVE_RENDER
 10
-67.921458
 20
0.0
 30
-42.885487
1001
AVE_RENDER
1002
{
1070
     6
1000
Pref
1070
    30
1070
    20
1070
     1
1070
     0
1000

1070
    10
1070
     1
1070
    30
1040
25.4
1070
     1
1040
0.3
1040
0.7
1040
0.0
1040
10.0
1010
-1.0
1020
-1.0
1030
-1.0
1040
0.3
1070
    49
1070
     0
1070
     0
1010
1.0
1020
1.0
1030
1.0
1040
45.0
1070
     1
1070
     0
1000
WCS
1040
0.0
1002
}
  0
INSERT
  8
I-FLU
 62
     3
  5
A69
  2
AVE_RENDER
 10
-67.921458
 20
0.0
 30
-42.885487
1001
AVE_RENDER
1002
{
1070
     0
1000
Full Opt
1070
     0
1070
     1
1070
     1
1070
     1
1070
     0
1070
     0
1070
     0
1070
     1
1070
     1
1040
0.0001
1040
0.0001
1002
}
  0
INSERT
  8
I-FLU
 62
     4
  5
A6A
  2
AVE_RENDER
 10
-67.921458
 20
0.0
 30
-42.885487
1001
AVE_RENDER
1002
{
1070
     0
1000
Quick Opt
1070
     0
1070
     1
1070
     1
1070
     1
1070
     0
1070
     0
1070
     1
1002
}
  0
INSERT
  8
I-FLU
 62
     5
  5
A6B
  2
AVE_RENDER
 10
-67.921458
 20
0.0
 30
-42.885487
1001
AVE_RENDER
1002
{
1070
     1
1000
Scanl Opt
1070
     2
1070
     0
1070
     2
1040
2.0
1040
4.0
1070
     0
1070
     1
1070
     0
1040
0.03
1002
}
  0
INSERT
  8
I-FLU
 62
     6
  5
A6C
  2
AVE_RENDER
 10
-67.921458
 20
0.0
 30
-42.885487
1001
AVE_RENDER
1002
{
1070
     2
1000
Raytr Opt
1070
     2
1070
     0
1070
     2
1040
2.0
1040
4.0
1070
     0
1070
     1
1070
     1
1040
0.03
1070
     3
1040
0.03
1002
}
  0
INSERT
  8
I-FLU
 62
     7
  5
A6D
  2
AVE_RENDER
 10
-67.921458
 20
0.0
 30
-42.885487
1001
AVE_RENDER
1002
{
1070
     0
1000
RFile Opt
1070
     5
1070
   640
1070
   480
1070
 10000
1070
     3
1070
    32
1070
    24
1070
     0
1070
     0
1070
     0
1070
     1
1070
     0
1070
     0
1070
     0
1002
}
  0
INSERT
  8
I-FLU
 62
     8
  5
A6E
  2
AVE_RENDER
 10
-67.921458
 20
0.0
 30
-42.885487
1001
AVE_RENDER
1002
{
1070
     0
1000
Fog Opt
1070
     0
1070
     0
1040
0.0
1040
1.0
1040
0.0
1040
1.0
1010
0.5
1020
0.5
1030
0.5
1002
}
  0
INSERT
  8
I-FLU
 62
     9
  5
A6F
  2
AVE_RENDER
 10
-67.921458
 20
0.0
 30
-42.885487
1001
AVE_RENDER
1002
{
1070
     0
1000
BG Opt
1070
     0
1070
     1
1010
0.0
1020
0.0
1030
0.0
1010
1.0
1020
0.0
1030
0.0
1010
0.0
1020
1.0
1030
0.0
1010
0.0
1020
0.0
1030
1.0
1040
0.5
1040
0.33
1040
0.0
1000

1070
     1
1000

1070
     1
1070
     1
1040
1.0
1040
1.0
1040
0.0
1040
0.0
1070
     0
1002
}
  0
INSERT
  8
I-FLU
 62
     1
  5
A76
  2
AVE_GLOBAL
 10
-67.921458
 20
0.0
 30
-42.885487
1001
AVE_MATERIAL
1002
{
1000
*GLOBAL*
1000
1
1000
Global finish.
1002
{
1002
}
1002
{
1070
    63
1002
{
1002
{
1010
-1.0
1020
-1.0
1030
-1.0
1002
}
1040
0.1
1000

1040
0.0
1002
{
1002
}
1040
0.0
1002
{
1002
}
1040
0.0
1002
}
1002
{
1002
{
1010
-1.0
1020
-1.0
1030
-1.0
1002
}
1040
0.7
1000

1040
0.0
1002
{
1002
}
1040
0.0
1002
{
1002
}
1040
0.0
1002
}
1002
{
1002
{
1010
-1.0
1020
-1.0
1030
-1.0
1002
}
1040
0.2
1000

1040
0.0
1002
{
1002
}
1040
0.0
1002
{
1002
}
1040
0.0
1002
}
1002
{
1070
     0
1002
{
1070
     1
1002
{
1040
1.0
1040
1.0
1000

1040
0.0
1002
{
1002
}
1040
0.0
1002
{
1002
}
1040
0.0
1002
}
1002
}
1040
1.0
1040
0.0
1040
0.0
1002
}
1002
{
1040
1.0
1040
1.0
1000

1040
0.0
1002
{
1002
}
1040
0.0
1002
{
1002
}
1040
0.0
1002
}
1002
{
1040
0.5
1040
1.0
1000

1040
0.0
1002
{
1002
}
1040
0.0
1002
{
1002
}
1040
0.0
1002
}
1002
{
1070
     0
1040
0.0
1002
{
1002
}
1040
1.0
1002
{
1002
}
1040
0.0
1002
}
1002
{
1040
0.0
1002
{
1002
{
1010
0.0
1020
0.0
1030
0.0
1002
}
1040
1.0
1000

1040
0.0
1002
{
1002
}
1040
0.0
1002
{
1002
}
1040
0.0
1002
}
1002
}
1002
{
1002
{
1070
     1
1002
{
1040
0.0
1040
1.0
1000

1040
0.0
1002
{
1002
}
1040
0.0
1002
{
1002
}
1040
0.0
1002
}
1002
}
1040
0.0
1002
{
1002
}
1010
1.0
1020
0.0
1030
0.0
1010
0.0
1020
1.0
1030
0.0
1010
0.0
1020
0.0
1030
1.0
1070
     0
1002
}
1002
{
1002
{
1040
1.0
1040
1.0
1002
{
1070
     1
1002
{
1040
1.0
1040
1.0
1000

1040
0.0
1002
{
1002
}
1040
0.0
1002
{
1002
}
1040
0.0
1002
}
1002
}
1002
}
1070
     0
1040
0.0
1002
{
1002
}
1002
}
1002
{
1002
}
1002
}
1002
{
1071
        3
1070
     3
1070
     0
1002
{
1070
     2
1070
     0
1070
     0
1040
0.0
1002
}
1070
     0
1070
     2
1002
{
1002
}
1002
}
1002
{
1040
8030.0
1040
190.300003
1040
0.305
1040
228.0
1040
545.0
1040
14.0
1040
17.4
1040
0.456
1002
}
1002
}
  0
POLYLINE
  8
I-CAP
  5
A78
 66
     1
 10
0.0
 20
0.0
 30
0.0
 70
    17
 71
    20
 72
     3
  0
VERTEX
  8
I-CAP
  5
A79
 10
129.342152
 20
1562.164513
 30
17.426209
 70
    64
  0
VERTEX
  8
I-CAP
  5
A7A
 10
129.342152
 20
1562.669513
 30
17.426209
 70
    64
  0
VERTEX
  8
I-CAP
  5
A7B
 10
129.342152
 20
1563.174513
 30
17.426209
 70
    64
  0
VERTEX
  8
I-CAP
  5
A7C
 10
127.958031
 20
1562.164513
 30
8.687208
 70
    64
  0
VERTEX
  8
I-CAP
  5
A7D
 10
127.958031
 20
1562.669513
 30
8.687208
 70
    64
  0
VERTEX
  8
I-CAP
  5
A7E
 10
127.958031
 20
1563.174513
 30
8.687208
 70
    64
  0
VERTEX
  8
I-CAP
  5
A7F
 10
123.941153
 20
1562.164513
 30
0.803642
 70
    64
  0
VERTEX
  8
I-CAP
  5
A80
 10
123.941153
 20
1562.669513
 30
0.803642
 70
    64
  0
VERTEX
  8
I-CAP
  5
A81
 10
123.941153
 20
1563.174513
 30
0.803642
 70
    64
  0
VERTEX
  8
I-CAP
  5
A82
 10
117.684719
 20
1562.164513
 30
-5.452792
 70
    64
  0
VERTEX
  8
I-CAP
  5
A83
 10
117.684719
 20
1562.669513
 30
-5.452792
 70
    64
  0
VERTEX
  8
I-CAP
  5
A84
 10
117.684719
 20
1563.174513
 30
-5.452792
 70
    64
  0
VERTEX
  8
I-CAP
  5
A85
 10
109.801153
 20
1562.164513
 30
-9.469669
 70
    64
  0
VERTEX
  8
I-CAP
  5
A86
 10
109.801153
 20
1562.669513
 30
-9.469669
 70
    64
  0
VERTEX
  8
I-CAP
  5
A87
 10
109.801153
 20
1563.174513
 30
-9.469669
 70
    64
  0
VERTEX
  8
I-CAP
  5
A88
 10
101.062152
 20
1562.164513
 30
-10.853791
 70
    64
  0
VERTEX
  8
I-CAP
  5
A89
 10
101.062152
 20
1562.669513
 30
-10.853791
 70
    64
  0
VERTEX
  8
I-CAP
  5
A8A
 10
101.062152
 20
1563.174513
 30
-10.853791
 70
    64
  0
VERTEX
  8
I-CAP
  5
A8B
 10
92.323152
 20
1562.164513
 30
-9.469669
 70
    64
  0
VERTEX
  8
I-CAP
  5
A8C
 10
92.323152
 20
1562.669513
 30
-9.469669
 70
    64
  0
VERTEX
  8
I-CAP
  5
A8D
 10
92.323152
 20
1563.174513
 30
-9.469669
 70
    64
  0
VERTEX
  8
I-CAP
  5
A8E
 10
84.439585
 20
1562.164513
 30
-5.452792
 70
    64
  0
VERTEX
  8
I-CAP
  5
A8F
 10
84.439585
 20
1562.669513
 30
-5.452792
 70
    64
  0
VERTEX
  8
I-CAP
  5
A90
 10
84.439585
 20
1563.174513
 30
-5.452792
 70
    64
  0
VERTEX
  8
I-CAP
  5
A91
 10
78.183152
 20
1562.164513
 30
0.803642
 70
    64
  0
VERTEX
  8
I-CAP
  5
A92
 10
78.183152
 20
1562.669513
 30
0.803642
 70
    64
  0
VERTEX
  8
I-CAP
  5
A93
 10
78.183152
 20
1563.174513
 30
0.803642
 70
    64
  0
VERTEX
  8
I-CAP
  5
A94
 10
74.166274
 20
1562.164513
 30
8.687208
 70
    64
  0
VERTEX
  8
I-CAP
  5
A95
 10
74.166274
 20
1562.669513
 30
8.687208
 70
    64
  0
VERTEX
  8
I-CAP
  5
A96
 10
74.166274
 20
1563.174513
 30
8.687208
 70
    64
  0
VERTEX
  8
I-CAP
  5
A97
 10
72.782152
 20
1562.164513
 30
17.426209
 70
    64
  0
VERTEX
  8
I-CAP
  5
A98
 10
72.782152
 20
1562.669513
 30
17.426209
 70
    64
  0
VERTEX
  8
I-CAP
  5
A99
 10
72.782152
 20
1563.174513
 30
17.426209
 70
    64
  0
VERTEX
  8
I-CAP
  5
A9A
 10
74.166274
 20
1562.164513
 30
26.16521
 70
    64
  0
VERTEX
  8
I-CAP
  5
A9B
 10
74.166274
 20
1562.669513
 30
26.16521
 70
    64
  0
VERTEX
  8
I-CAP
  5
A9C
 10
74.166274
 20
1563.174513
 30
26.16521
 70
    64
  0
VERTEX
  8
I-CAP
  5
A9D
 10
78.183152
 20
1562.164513
 30
34.048776
 70
    64
  0
VERTEX
  8
I-CAP
  5
A9E
 10
78.183152
 20
1562.669513
 30
34.048776
 70
    64
  0
VERTEX
  8
I-CAP
  5
A9F
 10
78.183152
 20
1563.174513
 30
34.048776
 70
    64
  0
VERTEX
  8
I-CAP
  5
AA0
 10
84.439585
 20
1562.164513
 30
40.30521
 70
    64
  0
VERTEX
  8
I-CAP
  5
AA1
 10
84.439585
 20
1562.669513
 30
40.30521
 70
    64
  0
VERTEX
  8
I-CAP
  5
AA2
 10
84.439585
 20
1563.174513
 30
40.30521
 70
    64
  0
VERTEX
  8
I-CAP
  5
AA3
 10
92.323152
 20
1562.164513
 30
44.322087
 70
    64
  0
VERTEX
  8
I-CAP
  5
AA4
 10
92.323152
 20
1562.669513
 30
44.322087
 70
    64
  0
VERTEX
  8
I-CAP
  5
AA5
 10
92.323152
 20
1563.174513
 30
44.322087
 70
    64
  0
VERTEX
  8
I-CAP
  5
AA6
 10
101.062152
 20
1562.164513
 30
45.706209
 70
    64
  0
VERTEX
  8
I-CAP
  5
AA7
 10
101.062152
 20
1562.669513
 30
45.706209
 70
    64
  0
VERTEX
  8
I-CAP
  5
AA8
 10
101.062152
 20
1563.174513
 30
45.706209
 70
    64
  0
VERTEX
  8
I-CAP
  5
AA9
 10
109.801153
 20
1562.164513
 30
44.322087
 70
    64
  0
VERTEX
  8
I-CAP
  5
AAA
 10
109.801153
 20
1562.669513
 30
44.322087
 70
    64
  0
VERTEX
  8
I-CAP
  5
AAB
 10
109.801153
 20
1563.174513
 30
44.322087
 70
    64
  0
VERTEX
  8
I-CAP
  5
AAC
 10
117.684719
 20
1562.164513
 30
40.30521
 70
    64
  0
VERTEX
  8
I-CAP
  5
AAD
 10
117.684719
 20
1562.669513
 30
40.30521
 70
    64
  0
VERTEX
  8
I-CAP
  5
AAE
 10
117.684719
 20
1563.174513
 30
40.30521
 70
    64
  0
VERTEX
  8
I-CAP
  5
AAF
 10
123.941153
 20
1562.164513
 30
34.048776
 70
    64
  0
VERTEX
  8
I-CAP
  5
AB0
 10
123.941153
 20
1562.669513
 30
34.048776
 70
    64
  0
VERTEX
  8
I-CAP
  5
AB1
 10
123.941153
 20
1563.174513
 30
34.048776
 70
    64
  0
VERTEX
  8
I-CAP
  5
AB2
 10
127.958031
 20
1562.164513
 30
26.16521
 70
    64
  0
VERTEX
  8
I-CAP
  5
AB3
 10
127.958031
 20
1562.669513
 30
26.16521
 70
    64
  0
VERTEX
  8
I-CAP
  5
AB4
 10
127.958031
 20
1563.174513
 30
26.16521
 70
    64
  0
SEQEND
  8
I-CAP
  5
AB5
  0
POLYLINE
  8
I-CAP
  5
AB6
 66
     1
 10
0.0
 20
0.0
 30
0.0
 70
    17
 71
    20
 72
     3
  0
VERTEX
  8
I-CAP
  5
AB7
 10
131.362152
 20
1562.164513
 30
17.426209
 70
    64
  0
VERTEX
  8
I-CAP
  5
AB8
 10
130.352152
 20
1562.164513
 30
17.426209
 70
    64
  0
VERTEX
  8
I-CAP
  5
AB9
 10
129.342152
 20
1562.164513
 30
17.426209
 70
    64
  0
VERTEX
  8
I-CAP
  5
ABA
 10
129.879165
 20
1562.164513
 30
8.062994
 70
    64
  0
VERTEX
  8
I-CAP
  5
ABB
 10
128.918598
 20
1562.164513
 30
8.375101
 70
    64
  0
VERTEX
  8
I-CAP
  5
ABC
 10
127.958031
 20
1562.164513
 30
8.687208
 70
    64
  0
VERTEX
  8
I-CAP
  5
ABD
 10
125.575367
 20
1562.164513
 30
-0.383684
 70
    64
  0
VERTEX
  8
I-CAP
  5
ABE
 10
124.75826
 20
1562.164513
 30
0.209979
 70
    64
  0
VERTEX
  8
I-CAP
  5
ABF
 10
123.941153
 20
1562.164513
 30
0.803642
 70
    64
  0
VERTEX
  8
I-CAP
  5
AC0
 10
118.872046
 20
1562.164513
 30
-7.087006
 70
    64
  0
VERTEX
  8
I-CAP
  5
AC1
 10
118.278382
 20
1562.164513
 30
-6.269899
 70
    64
  0
VERTEX
  8
I-CAP
  5
AC2
 10
117.684719
 20
1562.164513
 30
-5.452792
 70
    64
  0
VERTEX
  8
I-CAP
  5
AC3
 10
110.425367
 20
1562.164513
 30
-11.390803
 70
    64
  0
VERTEX
  8
I-CAP
  5
AC4
 10
110.11326
 20
1562.164513
 30
-10.430236
 70
    64
  0
VERTEX
  8
I-CAP
  5
AC5
 10
109.801153
 20
1562.164513
 30
-9.469669
 70
    64
  0
VERTEX
  8
I-CAP
  5
AC6
 10
101.062152
 20
1562.164513
 30
-12.873791
 70
    64
  0
VERTEX
  8
I-CAP
  5
AC7
 10
101.062152
 20
1562.164513
 30
-11.863791
 70
    64
  0
VERTEX
  8
I-CAP
  5
AC8
 10
101.062152
 20
1562.164513
 30
-10.853791
 70
    64
  0
VERTEX
  8
I-CAP
  5
AC9
 10
91.698937
 20
1562.164513
 30
-11.390803
 70
    64
  0
VERTEX
  8
I-CAP
  5
ACA
 10
92.011045
 20
1562.164513
 30
-10.430236
 70
    64
  0
VERTEX
  8
I-CAP
  5
ACB
 10
92.323152
 20
1562.164513
 30
-9.469669
 70
    64
  0
VERTEX
  8
I-CAP
  5
ACC
 10
83.252259
 20
1562.164513
 30
-7.087006
 70
    64
  0
VERTEX
  8
I-CAP
  5
ACD
 10
83.845922
 20
1562.164513
 30
-6.269899
 70
    64
  0
VERTEX
  8
I-CAP
  5
ACE
 10
84.439585
 20
1562.164513
 30
-5.452792
 70
    64
  0
VERTEX
  8
I-CAP
  5
ACF
 10
76.548937
 20
1562.164513
 30
-0.383684
 70
    64
  0
VERTEX
  8
I-CAP
  5
AD0
 10
77.366045
 20
1562.164513
 30
0.209979
 70
    64
  0
VERTEX
  8
I-CAP
  5
AD1
 10
78.183152
 20
1562.164513
 30
0.803642
 70
    64
  0
VERTEX
  8
I-CAP
  5
AD2
 10
72.24514
 20
1562.164513
 30
8.062994
 70
    64
  0
VERTEX
  8
I-CAP
  5
AD3
 10
73.205707
 20
1562.164513
 30
8.375101
 70
    64
  0
VERTEX
  8
I-CAP
  5
AD4
 10
74.166274
 20
1562.164513
 30
8.687208
 70
    64
  0
VERTEX
  8
I-CAP
  5
AD5
 10
70.762152
 20
1562.164513
 30
17.426209
 70
    64
  0
VERTEX
  8
I-CAP
  5
AD6
 10
71.772152
 20
1562.164513
 30
17.426209
 70
    64
  0
VERTEX
  8
I-CAP
  5
AD7
 10
72.782152
 20
1562.164513
 30
17.426209
 70
    64
  0
VERTEX
  8
I-CAP
  5
AD8
 10
72.24514
 20
1562.164513
 30
26.789424
 70
    64
  0
VERTEX
  8
I-CAP
  5
AD9
 10
73.205707
 20
1562.164513
 30
26.477317
 70
    64
  0
VERTEX
  8
I-CAP
  5
ADA
 10
74.166274
 20
1562.164513
 30
26.16521
 70
    64
  0
VERTEX
  8
I-CAP
  5
ADB
 10
76.548937
 20
1562.164513
 30
35.236102
 70
    64
  0
VERTEX
  8
I-CAP
  5
ADC
 10
77.366045
 20
1562.164513
 30
34.642439
 70
    64
  0
VERTEX
  8
I-CAP
  5
ADD
 10
78.183152
 20
1562.164513
 30
34.048776
 70
    64
  0
VERTEX
  8
I-CAP
  5
ADE
 10
83.252259
 20
1562.164513
 30
41.939424
 70
    64
  0
VERTEX
  8
I-CAP
  5
ADF
 10
83.845922
 20
1562.164513
 30
41.122317
 70
    64
  0
VERTEX
  8
I-CAP
  5
AE0
 10
84.439585
 20
1562.164513
 30
40.30521
 70
    64
  0
VERTEX
  8
I-CAP
  5
AE1
 10
91.698937
 20
1562.164513
 30
46.243221
 70
    64
  0
VERTEX
  8
I-CAP
  5
AE2
 10
92.011045
 20
1562.164513
 30
45.282654
 70
    64
  0
VERTEX
  8
I-CAP
  5
AE3
 10
92.323152
 20
1562.164513
 30
44.322087
 70
    64
  0
VERTEX
  8
I-CAP
  5
AE4
 10
101.062152
 20
1562.164513
 30
47.726209
 70
    64
  0
VERTEX
  8
I-CAP
  5
AE5
 10
101.062152
 20
1562.164513
 30
46.716209
 70
    64
  0
VERTEX
  8
I-CAP
  5
AE6
 10
101.062152
 20
1562.164513
 30
45.706209
 70
    64
  0
VERTEX
  8
I-CAP
  5
AE7
 10
110.425367
 20
1562.164513
 30
46.243221
 70
    64
  0
VERTEX
  8
I-CAP
  5
AE8
 10
110.11326
 20
1562.164513
 30
45.282654
 70
    64
  0
VERTEX
  8
I-CAP
  5
AE9
 10
109.801153
 20
1562.164513
 30
44.322087
 70
    64
  0
VERTEX
  8
I-CAP
  5
AEA
 10
118.872046
 20
1562.164513
 30
41.939424
 70
    64
  0
VERTEX
  8
I-CAP
  5
AEB
 10
118.278382
 20
1562.164513
 30
41.122317
 70
    64
  0
VERTEX
  8
I-CAP
  5
AEC
 10
117.684719
 20
1562.164513
 30
40.30521
 70
    64
  0
VERTEX
  8
I-CAP
  5
AED
 10
125.575367
 20
1562.164513
 30
35.236102
 70
    64
  0
VERTEX
  8
I-CAP
  5
AEE
 10
124.75826
 20
1562.164513
 30
34.642439
 70
    64
  0
VERTEX
  8
I-CAP
  5
AEF
 10
123.941153
 20
1562.164513
 30
34.048776
 70
    64
  0
VERTEX
  8
I-CAP
  5
AF0
 10
129.879165
 20
1562.164513
 30
26.789424
 70
    64
  0
VERTEX
  8
I-CAP
  5
AF1
 10
128.918598
 20
1562.164513
 30
26.477317
 70
    64
  0
VERTEX
  8
I-CAP
  5
AF2
 10
127.958031
 20
1562.164513
 30
26.16521
 70
    64
  0
SEQEND
  8
I-CAP
  5
AF3
  0
POLYLINE
  8
I-CAP
  5
AF4
 66
     1
 10
0.0
 20
0.0
 30
0.0
 70
    17
 71
    20
 72
     3
  0
VERTEX
  8
I-CAP
  5
AF5
 10
127.322152
 20
1563.174513
 30
17.426209
 70
    64
  0
VERTEX
  8
I-CAP
  5
AF6
 10
128.332152
 20
1563.174513
 30
17.426209
 70
    64
  0
VERTEX
  8
I-CAP
  5
AF7
 10
129.342152
 20
1563.174513
 30
17.426209
 70
    64
  0
VERTEX
  8
I-CAP
  5
AF8
 10
126.036897
 20
1563.174513
 30
9.311423
 70
    64
  0
VERTEX
  8
I-CAP
  5
AF9
 10
126.997464
 20
1563.174513
 30
8.999316
 70
    64
  0
VERTEX
  8
I-CAP
  5
AFA
 10
127.958031
 20
1563.174513
 30
8.687208
 70
    64
  0
VERTEX
  8
I-CAP
  5
AFB
 10
122.306939
 20
1563.174513
 30
1.990968
 70
    64
  0
VERTEX
  8
I-CAP
  5
AFC
 10
123.124046
 20
1563.174513
 30
1.397305
 70
    64
  0
VERTEX
  8
I-CAP
  5
AFD
 10
123.941153
 20
1563.174513
 30
0.803642
 70
    64
  0
VERTEX
  8
I-CAP
  5
AFE
 10
116.497393
 20
1563.174513
 30
-3.818577
 70
    64
  0
VERTEX
  8
I-CAP
  5
AFF
 10
117.091056
 20
1563.174513
 30
-4.635684
 70
    64
  0
VERTEX
  8
I-CAP
  5
B00
 10
117.684719
 20
1563.174513
 30
-5.452792
 70
    64
  0
VERTEX
  8
I-CAP
  5
B01
 10
109.176939
 20
1563.174513
 30
-7.548535
 70
    64
  0
VERTEX
  8
I-CAP
  5
B02
 10
109.489046
 20
1563.174513
 30
-8.509102
 70
    64
  0
VERTEX
  8
I-CAP
  5
B03
 10
109.801153
 20
1563.174513
 30
-9.469669
 70
    64
  0
VERTEX
  8
I-CAP
  5
B04
 10
101.062152
 20
1563.174513
 30
-8.833791
 70
    64
  0
VERTEX
  8
I-CAP
  5
B05
 10
101.062152
 20
1563.174513
 30
-9.843791
 70
    64
  0
VERTEX
  8
I-CAP
  5
B06
 10
101.062152
 20
1563.174513
 30
-10.853791
 70
    64
  0
VERTEX
  8
I-CAP
  5
B07
 10
92.947366
 20
1563.174513
 30
-7.548535
 70
    64
  0
VERTEX
  8
I-CAP
  5
B08
 10
92.635259
 20
1563.174513
 30
-8.509102
 70
    64
  0
VERTEX
  8
I-CAP
  5
B09
 10
92.323152
 20
1563.174513
 30
-9.469669
 70
    64
  0
VERTEX
  8
I-CAP
  5
B0A
 10
85.626912
 20
1563.174513
 30
-3.818577
 70
    64
  0
VERTEX
  8
I-CAP
  5
B0B
 10
85.033249
 20
1563.174513
 30
-4.635684
 70
    64
  0
VERTEX
  8
I-CAP
  5
B0C
 10
84.439585
 20
1563.174513
 30
-5.452792
 70
    64
  0
VERTEX
  8
I-CAP
  5
B0D
 10
79.817366
 20
1563.174513
 30
1.990968
 70
    64
  0
VERTEX
  8
I-CAP
  5
B0E
 10
79.000259
 20
1563.174513
 30
1.397305
 70
    64
  0
VERTEX
  8
I-CAP
  5
B0F
 10
78.183152
 20
1563.174513
 30
0.803642
 70
    64
  0
VERTEX
  8
I-CAP
  5
B10
 10
76.087408
 20
1563.174513
 30
9.311423
 70
    64
  0
VERTEX
  8
I-CAP
  5
B11
 10
75.126841
 20
1563.174513
 30
8.999316
 70
    64
  0
VERTEX
  8
I-CAP
  5
B12
 10
74.166274
 20
1563.174513
 30
8.687208
 70
    64
  0
VERTEX
  8
I-CAP
  5
B13
 10
74.802152
 20
1563.174513
 30
17.426209
 70
    64
  0
VERTEX
  8
I-CAP
  5
B14
 10
73.792152
 20
1563.174513
 30
17.426209
 70
    64
  0
VERTEX
  8
I-CAP
  5
B15
 10
72.782152
 20
1563.174513
 30
17.426209
 70
    64
  0
VERTEX
  8
I-CAP
  5
B16
 10
76.087408
 20
1563.174513
 30
25.540995
 70
    64
  0
VERTEX
  8
I-CAP
  5
B17
 10
75.126841
 20
1563.174513
 30
25.853102
 70
    64
  0
VERTEX
  8
I-CAP
  5
B18
 10
74.166274
 20
1563.174513
 30
26.16521
 70
    64
  0
VERTEX
  8
I-CAP
  5
B19
 10
79.817366
 20
1563.174513
 30
32.86145
 70
    64
  0
VERTEX
  8
I-CAP
  5
B1A
 10
79.000259
 20
1563.174513
 30
33.455113
 70
    64
  0
VERTEX
  8
I-CAP
  5
B1B
 10
78.183152
 20
1563.174513
 30
34.048776
 70
    64
  0
VERTEX
  8
I-CAP
  5
B1C
 10
85.626912
 20
1563.174513
 30
38.670995
 70
    64
  0
VERTEX
  8
I-CAP
  5
B1D
 10
85.033249
 20
1563.174513
 30
39.488102
 70
    64
  0
VERTEX
  8
I-CAP
  5
B1E
 10
84.439585
 20
1563.174513
 30
40.30521
 70
    64
  0
VERTEX
  8
I-CAP
  5
B1F
 10
92.947366
 20
1563.174513
 30
42.400953
 70
    64
  0
VERTEX
  8
I-CAP
  5
B20
 10
92.635259
 20
1563.174513
 30
43.36152
 70
    64
  0
VERTEX
  8
I-CAP
  5
B21
 10
92.323152
 20
1563.174513
 30
44.322087
 70
    64
  0
VERTEX
  8
I-CAP
  5
B22
 10
101.062152
 20
1563.174513
 30
43.686209
 70
    64
  0
VERTEX
  8
I-CAP
  5
B23
 10
101.062152
 20
1563.174513
 30
44.696209
 70
    64
  0
VERTEX
  8
I-CAP
  5
B24
 10
101.062152
 20
1563.174513
 30
45.706209
 70
    64
  0
VERTEX
  8
I-CAP
  5
B25
 10
109.176939
 20
1563.174513
 30
42.400953
 70
    64
  0
VERTEX
  8
I-CAP
  5
B26
 10
109.489046
 20
1563.174513
 30
43.36152
 70
    64
  0
VERTEX
  8
I-CAP
  5
B27
 10
109.801153
 20
1563.174513
 30
44.322087
 70
    64
  0
VERTEX
  8
I-CAP
  5
B28
 10
116.497393
 20
1563.174513
 30
38.670995
 70
    64
  0
VERTEX
  8
I-CAP
  5
B29
 10
117.091056
 20
1563.174513
 30
39.488102
 70
    64
  0
VERTEX
  8
I-CAP
  5
B2A
 10
117.684719
 20
1563.174513
 30
40.30521
 70
    64
  0
VERTEX
  8
I-CAP
  5
B2B
 10
122.306939
 20
1563.174513
 30
32.86145
 70
    64
  0
VERTEX
  8
I-CAP
  5
B2C
 10
123.124046
 20
1563.174513
 30
33.455113
 70
    64
  0
VERTEX
  8
I-CAP
  5
B2D
 10
123.941153
 20
1563.174513
 30
34.048776
 70
    64
  0
VERTEX
  8
I-CAP
  5
B2E
 10
126.036897
 20
1563.174513
 30
25.540995
 70
    64
  0
VERTEX
  8
I-CAP
  5
B2F
 10
126.997464
 20
1563.174513
 30
25.853102
 70
    64
  0
VERTEX
  8
I-CAP
  5
B30
 10
127.958031
 20
1563.174513
 30
26.16521
 70
    64
  0
SEQEND
  8
I-CAP
  5
B31
  0
POLYLINE
  8
I-CAP
  5
B32
 66
     1
 10
0.0
 20
0.0
 30
0.0
 70
    17
 71
    20
 72
     3
  0
VERTEX
  8
I-CAP
  5
B33
 10
131.362152
 20
1562.164513
 30
17.426209
 70
    64
  0
VERTEX
  8
I-CAP
  5
B34
 10
132.372152
 20
1559.639513
 30
17.426209
 70
    64
  0
VERTEX
  8
I-CAP
  5
B35
 10
133.382152
 20
1557.114513
 30
17.426209
 70
    64
  0
VERTEX
  8
I-CAP
  5
B36
 10
129.879165
 20
1562.164513
 30
8.062994
 70
    64
  0
VERTEX
  8
I-CAP
  5
B37
 10
130.839732
 20
1559.639513
 30
7.750887
 70
    64
  0
VERTEX
  8
I-CAP
  5
B38
 10
131.800299
 20
1557.114513
 30
7.43878
 70
    64
  0
VERTEX
  8
I-CAP
  5
B39
 10
125.575367
 20
1562.164513
 30
-0.383684
 70
    64
  0
VERTEX
  8
I-CAP
  5
B3A
 10
126.392475
 20
1559.639513
 30
-0.977347
 70
    64
  0
VERTEX
  8
I-CAP
  5
B3B
 10
127.209582
 20
1557.114513
 30
-1.57101
 70
    64
  0
VERTEX
  8
I-CAP
  5
B3C
 10
118.872046
 20
1562.164513
 30
-7.087006
 70
    64
  0
VERTEX
  8
I-CAP
  5
B3D
 10
119.465709
 20
1559.639513
 30
-7.904113
 70
    64
  0
VERTEX
  8
I-CAP
  5
B3E
 10
120.059372
 20
1557.114513
 30
-8.72122
 70
    64
  0
VERTEX
  8
I-CAP
  5
B3F
 10
110.425367
 20
1562.164513
 30
-11.390803
 70
    64
  0
VERTEX
  8
I-CAP
  5
B40
 10
110.737475
 20
1559.639513
 30
-12.35137
 70
    64
  0
VERTEX
  8
I-CAP
  5
B41
 10
111.049582
 20
1557.114513
 30
-13.311938
 70
    64
  0
VERTEX
  8
I-CAP
  5
B42
 10
101.062152
 20
1562.164513
 30
-12.873791
 70
    64
  0
VERTEX
  8
I-CAP
  5
B43
 10
101.062152
 20
1559.639513
 30
-13.883791
 70
    64
  0
VERTEX
  8
I-CAP
  5
B44
 10
101.062152
 20
1557.114513
 30
-14.893791
 70
    64
  0
VERTEX
  8
I-CAP
  5
B45
 10
91.698937
 20
1562.164513
 30
-11.390803
 70
    64
  0
VERTEX
  8
I-CAP
  5
B46
 10
91.38683
 20
1559.639513
 30
-12.35137
 70
    64
  0
VERTEX
  8
I-CAP
  5
B47
 10
91.074723
 20
1557.114513
 30
-13.311938
 70
    64
  0
VERTEX
  8
I-CAP
  5
B48
 10
83.252259
 20
1562.164513
 30
-7.087006
 70
    64
  0
VERTEX
  8
I-CAP
  5
B49
 10
82.658596
 20
1559.639513
 30
-7.904113
 70
    64
  0
VERTEX
  8
I-CAP
  5
B4A
 10
82.064933
 20
1557.114513
 30
-8.72122
 70
    64
  0
VERTEX
  8
I-CAP
  5
B4B
 10
76.548937
 20
1562.164513
 30
-0.383684
 70
    64
  0
VERTEX
  8
I-CAP
  5
B4C
 10
75.73183
 20
1559.639513
 30
-0.977347
 70
    64
  0
VERTEX
  8
I-CAP
  5
B4D
 10
74.914723
 20
1557.114513
 30
-1.57101
 70
    64
  0
VERTEX
  8
I-CAP
  5
B4E
 10
72.24514
 20
1562.164513
 30
8.062994
 70
    64
  0
VERTEX
  8
I-CAP
  5
B4F
 10
71.284573
 20
1559.639513
 30
7.750887
 70
    64
  0
VERTEX
  8
I-CAP
  5
B50
 10
70.324006
 20
1557.114513
 30
7.43878
 70
    64
  0
VERTEX
  8
I-CAP
  5
B51
 10
70.762152
 20
1562.164513
 30
17.426209
 70
    64
  0
VERTEX
  8
I-CAP
  5
B52
 10
69.752152
 20
1559.639513
 30
17.426209
 70
    64
  0
VERTEX
  8
I-CAP
  5
B53
 10
68.742152
 20
1557.114513
 30
17.426209
 70
    64
  0
VERTEX
  8
I-CAP
  5
B54
 10
72.24514
 20
1562.164513
 30
26.789424
 70
    64
  0
VERTEX
  8
I-CAP
  5
B55
 10
71.284573
 20
1559.639513
 30
27.101531
 70
    64
  0
VERTEX
  8
I-CAP
  5
B56
 10
70.324006
 20
1557.114513
 30
27.413638
 70
    64
  0
VERTEX
  8
I-CAP
  5
B57
 10
76.548937
 20
1562.164513
 30
35.236102
 70
    64
  0
VERTEX
  8
I-CAP
  5
B58
 10
75.73183
 20
1559.639513
 30
35.829765
 70
    64
  0
VERTEX
  8
I-CAP
  5
B59
 10
74.914723
 20
1557.114513
 30
36.423428
 70
    64
  0
VERTEX
  8
I-CAP
  5
B5A
 10
83.252259
 20
1562.164513
 30
41.939424
 70
    64
  0
VERTEX
  8
I-CAP
  5
B5B
 10
82.658596
 20
1559.639513
 30
42.756531
 70
    64
  0
VERTEX
  8
I-CAP
  5
B5C
 10
82.064933
 20
1557.114513
 30
43.573638
 70
    64
  0
VERTEX
  8
I-CAP
  5
B5D
 10
91.698937
 20
1562.164513
 30
46.243221
 70
    64
  0
VERTEX
  8
I-CAP
  5
B5E
 10
91.38683
 20
1559.639513
 30
47.203789
 70
    64
  0
VERTEX
  8
I-CAP
  5
B5F
 10
91.074723
 20
1557.114513
 30
48.164356
 70
    64
  0
VERTEX
  8
I-CAP
  5
B60
 10
101.062152
 20
1562.164513
 30
47.726209
 70
    64
  0
VERTEX
  8
I-CAP
  5
B61
 10
101.062152
 20
1559.639513
 30
48.736209
 70
    64
  0
VERTEX
  8
I-CAP
  5
B62
 10
101.062152
 20
1557.114513
 30
49.746209
 70
    64
  0
VERTEX
  8
I-CAP
  5
B63
 10
110.425367
 20
1562.164513
 30
46.243221
 70
    64
  0
VERTEX
  8
I-CAP
  5
B64
 10
110.737475
 20
1559.639513
 30
47.203789
 70
    64
  0
VERTEX
  8
I-CAP
  5
B65
 10
111.049582
 20
1557.114513
 30
48.164356
 70
    64
  0
VERTEX
  8
I-CAP
  5
B66
 10
118.872046
 20
1562.164513
 30
41.939424
 70
    64
  0
VERTEX
  8
I-CAP
  5
B67
 10
119.465709
 20
1559.639513
 30
42.756531
 70
    64
  0
VERTEX
  8
I-CAP
  5
B68
 10
120.059372
 20
1557.114513
 30
43.573638
 70
    64
  0
VERTEX
  8
I-CAP
  5
B69
 10
125.575367
 20
1562.164513
 30
35.236102
 70
    64
  0
VERTEX
  8
I-CAP
  5
B6A
 10
126.392475
 20
1559.639513
 30
35.829765
 70
    64
  0
VERTEX
  8
I-CAP
  5
B6B
 10
127.209582
 20
1557.114513
 30
36.423428
 70
    64
  0
VERTEX
  8
I-CAP
  5
B6C
 10
129.879165
 20
1562.164513
 30
26.789424
 70
    64
  0
VERTEX
  8
I-CAP
  5
B6D
 10
130.839732
 20
1559.639513
 30
27.101531
 70
    64
  0
VERTEX
  8
I-CAP
  5
B6E
 10
131.800299
 20
1557.114513
 30
27.413638
 70
    64
  0
SEQEND
  8
I-CAP
  5
B6F
  0
POLYLINE
  8
I-CAP
  5
B70
 66
     1
 10
0.0
 20
0.0
 30
0.0
 70
    17
 71
    20
 72
     3
  0
VERTEX
  8
I-CAP
  5
B71
 10
127.322152
 20
1557.114513
 30
17.426209
 70
    64
  0
VERTEX
  8
I-CAP
  5
B72
 10
127.322152
 20
1560.144513
 30
17.426209
 70
    64
  0
VERTEX
  8
I-CAP
  5
B73
 10
127.322152
 20
1563.174513
 30
17.426209
 70
    64
  0
VERTEX
  8
I-CAP
  5
B74
 10
126.036897
 20
1557.114513
 30
9.311423
 70
    64
  0
VERTEX
  8
I-CAP
  5
B75
 10
126.036897
 20
1560.144513
 30
9.311423
 70
    64
  0
VERTEX
  8
I-CAP
  5
B76
 10
126.036897
 20
1563.174513
 30
9.311423
 70
    64
  0
VERTEX
  8
I-CAP
  5
B77
 10
122.306939
 20
1557.114513
 30
1.990968
 70
    64
  0
VERTEX
  8
I-CAP
  5
B78
 10
122.306939
 20
1560.144513
 30
1.990968
 70
    64
  0
VERTEX
  8
I-CAP
  5
B79
 10
122.306939
 20
1563.174513
 30
1.990968
 70
    64
  0
VERTEX
  8
I-CAP
  5
B7A
 10
116.497393
 20
1557.114513
 30
-3.818577
 70
    64
  0
VERTEX
  8
I-CAP
  5
B7B
 10
116.497393
 20
1560.144513
 30
-3.818577
 70
    64
  0
VERTEX
  8
I-CAP
  5
B7C
 10
116.497393
 20
1563.174513
 30
-3.818577
 70
    64
  0
VERTEX
  8
I-CAP
  5
B7D
 10
109.176939
 20
1557.114513
 30
-7.548535
 70
    64
  0
VERTEX
  8
I-CAP
  5
B7E
 10
109.176939
 20
1560.144513
 30
-7.548535
 70
    64
  0
VERTEX
  8
I-CAP
  5
B7F
 10
109.176939
 20
1563.174513
 30
-7.548535
 70
    64
  0
VERTEX
  8
I-CAP
  5
B80
 10
101.062152
 20
1557.114513
 30
-8.833791
 70
    64
  0
VERTEX
  8
I-CAP
  5
B81
 10
101.062152
 20
1560.144513
 30
-8.833791
 70
    64
  0
VERTEX
  8
I-CAP
  5
B82
 10
101.062152
 20
1563.174513
 30
-8.833791
 70
    64
  0
VERTEX
  8
I-CAP
  5
B83
 10
92.947366
 20
1557.114513
 30
-7.548535
 70
    64
  0
VERTEX
  8
I-CAP
  5
B84
 10
92.947366
 20
1560.144513
 30
-7.548535
 70
    64
  0
VERTEX
  8
I-CAP
  5
B85
 10
92.947366
 20
1563.174513
 30
-7.548535
 70
    64
  0
VERTEX
  8
I-CAP
  5
B86
 10
85.626912
 20
1557.114513
 30
-3.818577
 70
    64
  0
VERTEX
  8
I-CAP
  5
B87
 10
85.626912
 20
1560.144513
 30
-3.818577
 70
    64
  0
VERTEX
  8
I-CAP
  5
B88
 10
85.626912
 20
1563.174513
 30
-3.818577
 70
    64
  0
VERTEX
  8
I-CAP
  5
B89
 10
79.817366
 20
1557.114513
 30
1.990968
 70
    64
  0
VERTEX
  8
I-CAP
  5
B8A
 10
79.817366
 20
1560.144513
 30
1.990968
 70
    64
  0
VERTEX
  8
I-CAP
  5
B8B
 10
79.817366
 20
1563.174513
 30
1.990968
 70
    64
  0
VERTEX
  8
I-CAP
  5
B8C
 10
76.087408
 20
1557.114513
 30
9.311423
 70
    64
  0
VERTEX
  8
I-CAP
  5
B8D
 10
76.087408
 20
1560.144513
 30
9.311423
 70
    64
  0
VERTEX
  8
I-CAP
  5
B8E
 10
76.087408
 20
1563.174513
 30
9.311423
 70
    64
  0
VERTEX
  8
I-CAP
  5
B8F
 10
74.802152
 20
1557.114513
 30
17.426209
 70
    64
  0
VERTEX
  8
I-CAP
  5
B90
 10
74.802152
 20
1560.144513
 30
17.426209
 70
    64
  0
VERTEX
  8
I-CAP
  5
B91
 10
74.802152
 20
1563.174513
 30
17.426209
 70
    64
  0
VERTEX
  8
I-CAP
  5
B92
 10
76.087408
 20
1557.114513
 30
25.540995
 70
    64
  0
VERTEX
  8
I-CAP
  5
B93
 10
76.087408
 20
1560.144513
 30
25.540995
 70
    64
  0
VERTEX
  8
I-CAP
  5
B94
 10
76.087408
 20
1563.174513
 30
25.540995
 70
    64
  0
VERTEX
  8
I-CAP
  5
B95
 10
79.817366
 20
1557.114513
 30
32.86145
 70
    64
  0
VERTEX
  8
I-CAP
  5
B96
 10
79.817366
 20
1560.144513
 30
32.86145
 70
    64
  0
VERTEX
  8
I-CAP
  5
B97
 10
79.817366
 20
1563.174513
 30
32.86145
 70
    64
  0
VERTEX
  8
I-CAP
  5
B98
 10
85.626912
 20
1557.114513
 30
38.670995
 70
    64
  0
VERTEX
  8
I-CAP
  5
B99
 10
85.626912
 20
1560.144513
 30
38.670995
 70
    64
  0
VERTEX
  8
I-CAP
  5
B9A
 10
85.626912
 20
1563.174513
 30
38.670995
 70
    64
  0
VERTEX
  8
I-CAP
  5
B9B
 10
92.947366
 20
1557.114513
 30
42.400953
 70
    64
  0
VERTEX
  8
I-CAP
  5
B9C
 10
92.947366
 20
1560.144513
 30
42.400953
 70
    64
  0
VERTEX
  8
I-CAP
  5
B9D
 10
92.947366
 20
1563.174513
 30
42.400953
 70
    64
  0
VERTEX
  8
I-CAP
  5
B9E
 10
101.062152
 20
1557.114513
 30
43.686209
 70
    64
  0
VERTEX
  8
I-CAP
  5
B9F
 10
101.062152
 20
1560.144513
 30
43.686209
 70
    64
  0
VERTEX
  8
I-CAP
  5
BA0
 10
101.062152
 20
1563.174513
 30
43.686209
 70
    64
  0
VERTEX
  8
I-CAP
  5
BA1
 10
109.176939
 20
1557.114513
 30
42.400953
 70
    64
  0
VERTEX
  8
I-CAP
  5
BA2
 10
109.176939
 20
1560.144513
 30
42.400953
 70
    64
  0
VERTEX
  8
I-CAP
  5
BA3
 10
109.176939
 20
1563.174513
 30
42.400953
 70
    64
  0
VERTEX
  8
I-CAP
  5
BA4
 10
116.497393
 20
1557.114513
 30
38.670995
 70
    64
  0
VERTEX
  8
I-CAP
  5
BA5
 10
116.497393
 20
1560.144513
 30
38.670995
 70
    64
  0
VERTEX
  8
I-CAP
  5
BA6
 10
116.497393
 20
1563.174513
 30
38.670995
 70
    64
  0
VERTEX
  8
I-CAP
  5
BA7
 10
122.306939
 20
1557.114513
 30
32.86145
 70
    64
  0
VERTEX
  8
I-CAP
  5
BA8
 10
122.306939
 20
1560.144513
 30
32.86145
 70
    64
  0
VERTEX
  8
I-CAP
  5
BA9
 10
122.306939
 20
1563.174513
 30
32.86145
 70
    64
  0
VERTEX
  8
I-CAP
  5
BAA
 10
126.036897
 20
1557.114513
 30
25.540995
 70
    64
  0
VERTEX
  8
I-CAP
  5
BAB
 10
126.036897
 20
1560.144513
 30
25.540995
 70
    64
  0
VERTEX
  8
I-CAP
  5
BAC
 10
126.036897
 20
1563.174513
 30
25.540995
 70
    64
  0
SEQEND
  8
I-CAP
  5
BAD
  0
POLYLINE
  8
I-CAP
  5
BAE
 66
     1
 10
0.0
 20
0.0
 30
0.0
 70
    17
 71
    20
 72
     3
  0
VERTEX
  8
I-CAP
  5
BAF
 10
101.062152
 20
1557.114513
 30
17.426209
 70
    64
  0
VERTEX
  8
I-CAP
  5
BB0
 10
114.192152
 20
1557.114513
 30
17.426209
 70
    64
  0
VERTEX
  8
I-CAP
  5
BB1
 10
127.322152
 20
1557.114513
 30
17.426209
 70
    64
  0
VERTEX
  8
I-CAP
  5
BB2
 10
101.062152
 20
1557.114513
 30
17.426209
 70
    64
  0
VERTEX
  8
I-CAP
  5
BB3
 10
113.549524
 20
1557.114513
 30
21.483602
 70
    64
  0
VERTEX
  8
I-CAP
  5
BB4
 10
126.036897
 20
1557.114513
 30
25.540995
 70
    64
  0
VERTEX
  8
I-CAP
  5
BB5
 10
101.062152
 20
1557.114513
 30
17.426209
 70
    64
  0
VERTEX
  8
I-CAP
  5
BB6
 10
111.684546
 20
1557.114513
 30
25.143829
 70
    64
  0
VERTEX
  8
I-CAP
  5
BB7
 10
122.306939
 20
1557.114513
 30
32.86145
 70
    64
  0
VERTEX
  8
I-CAP
  5
BB8
 10
101.062152
 20
1557.114513
 30
17.426209
 70
    64
  0
VERTEX
  8
I-CAP
  5
BB9
 10
108.779773
 20
1557.114513
 30
28.048602
 70
    64
  0
VERTEX
  8
I-CAP
  5
BBA
 10
116.497393
 20
1557.114513
 30
38.670995
 70
    64
  0
VERTEX
  8
I-CAP
  5
BBB
 10
101.062152
 20
1557.114513
 30
17.426209
 70
    64
  0
VERTEX
  8
I-CAP
  5
BBC
 10
105.119546
 20
1557.114513
 30
29.913581
 70
    64
  0
VERTEX
  8
I-CAP
  5
BBD
 10
109.176939
 20
1557.114513
 30
42.400953
 70
    64
  0
VERTEX
  8
I-CAP
  5
BBE
 10
101.062152
 20
1557.114513
 30
17.426209
 70
    64
  0
VERTEX
  8
I-CAP
  5
BBF
 10
101.062152
 20
1557.114513
 30
30.556209
 70
    64
  0
VERTEX
  8
I-CAP
  5
BC0
 10
101.062152
 20
1557.114513
 30
43.686209
 70
    64
  0
VERTEX
  8
I-CAP
  5
BC1
 10
101.062152
 20
1557.114513
 30
17.426209
 70
    64
  0
VERTEX
  8
I-CAP
  5
BC2
 10
97.004759
 20
1557.114513
 30
29.913581
 70
    64
  0
VERTEX
  8
I-CAP
  5
BC3
 10
92.947366
 20
1557.114513
 30
42.400953
 70
    64
  0
VERTEX
  8
I-CAP
  5
BC4
 10
101.062152
 20
1557.114513
 30
17.426209
 70
    64
  0
VERTEX
  8
I-CAP
  5
BC5
 10
93.344532
 20
1557.114513
 30
28.048602
 70
    64
  0
VERTEX
  8
I-CAP
  5
BC6
 10
85.626912
 20
1557.114513
 30
38.670995
 70
    64
  0
VERTEX
  8
I-CAP
  5
BC7
 10
101.062152
 20
1557.114513
 30
17.426209
 70
    64
  0
VERTEX
  8
I-CAP
  5
BC8
 10
90.439759
 20
1557.114513
 30
25.143829
 70
    64
  0
VERTEX
  8
I-CAP
  5
BC9
 10
79.817366
 20
1557.114513
 30
32.86145
 70
    64
  0
VERTEX
  8
I-CAP
  5
BCA
 10
101.062152
 20
1557.114513
 30
17.426209
 70
    64
  0
VERTEX
  8
I-CAP
  5
BCB
 10
88.57478
 20
1557.114513
 30
21.483602
 70
    64
  0
VERTEX
  8
I-CAP
  5
BCC
 10
76.087408
 20
1557.114513
 30
25.540995
 70
    64
  0
VERTEX
  8
I-CAP
  5
BCD
 10
101.062152
 20
1557.114513
 30
17.426209
 70
    64
  0
VERTEX
  8
I-CAP
  5
BCE
 10
87.932152
 20
1557.114513
 30
17.426209
 70
    64
  0
VERTEX
  8
I-CAP
  5
BCF
 10
74.802152
 20
1557.114513
 30
17.426209
 70
    64
  0
VERTEX
  8
I-CAP
  5
BD0
 10
101.062152
 20
1557.114513
 30
17.426209
 70
    64
  0
VERTEX
  8
I-CAP
  5
BD1
 10
88.57478
 20
1557.114513
 30
13.368816
 70
    64
  0
VERTEX
  8
I-CAP
  5
BD2
 10
76.087408
 20
1557.114513
 30
9.311423
 70
    64
  0
VERTEX
  8
I-CAP
  5
BD3
 10
101.062152
 20
1557.114513
 30
17.426209
 70
    64
  0
VERTEX
  8
I-CAP
  5
BD4
 10
90.439759
 20
1557.114513
 30
9.708589
 70
    64
  0
VERTEX
  8
I-CAP
  5
BD5
 10
79.817366
 20
1557.114513
 30
1.990968
 70
    64
  0
VERTEX
  8
I-CAP
  5
BD6
 10
101.062152
 20
1557.114513
 30
17.426209
 70
    64
  0
VERTEX
  8
I-CAP
  5
BD7
 10
93.344532
 20
1557.114513
 30
6.803816
 70
    64
  0
VERTEX
  8
I-CAP
  5
BD8
 10
85.626912
 20
1557.114513
 30
-3.818577
 70
    64
  0
VERTEX
  8
I-CAP
  5
BD9
 10
101.062152
 20
1557.114513
 30
17.426209
 70
    64
  0
VERTEX
  8
I-CAP
  5
BDA
 10
97.004759
 20
1557.114513
 30
4.938837
 70
    64
  0
VERTEX
  8
I-CAP
  5
BDB
 10
92.947366
 20
1557.114513
 30
-7.548535
 70
    64
  0
VERTEX
  8
I-CAP
  5
BDC
 10
101.062152
 20
1557.114513
 30
17.426209
 70
    64
  0
VERTEX
  8
I-CAP
  5
BDD
 10
101.062152
 20
1557.114513
 30
4.296209
 70
    64
  0
VERTEX
  8
I-CAP
  5
BDE
 10
101.062152
 20
1557.114513
 30
-8.833791
 70
    64
  0
VERTEX
  8
I-CAP
  5
BDF
 10
101.062152
 20
1557.114513
 30
17.426209
 70
    64
  0
VERTEX
  8
I-CAP
  5
BE0
 10
105.119546
 20
1557.114513
 30
4.938837
 70
    64
  0
VERTEX
  8
I-CAP
  5
BE1
 10
109.176939
 20
1557.114513
 30
-7.548535
 70
    64
  0
VERTEX
  8
I-CAP
  5
BE2
 10
101.062152
 20
1557.114513
 30
17.426209
 70
    64
  0
VERTEX
  8
I-CAP
  5
BE3
 10
108.779773
 20
1557.114513
 30
6.803816
 70
    64
  0
VERTEX
  8
I-CAP
  5
BE4
 10
116.497393
 20
1557.114513
 30
-3.818577
 70
    64
  0
VERTEX
  8
I-CAP
  5
BE5
 10
101.062152
 20
1557.114513
 30
17.426209
 70
    64
  0
VERTEX
  8
I-CAP
  5
BE6
 10
111.684546
 20
1557.114513
 30
9.708589
 70
    64
  0
VERTEX
  8
I-CAP
  5
BE7
 10
122.306939
 20
1557.114513
 30
1.990968
 70
    64
  0
VERTEX
  8
I-CAP
  5
BE8
 10
101.062152
 20
1557.114513
 30
17.426209
 70
    64
  0
VERTEX
  8
I-CAP
  5
BE9
 10
113.549524
 20
1557.114513
 30
13.368816
 70
    64
  0
VERTEX
  8
I-CAP
  5
BEA
 10
126.036897
 20
1557.114513
 30
9.311423
 70
    64
  0
SEQEND
  8
I-CAP
  5
BEB
  0
POLYLINE
  8
I-FLU
  5
BEC
 66
     1
 10
0.0
 20
0.0
 30
0.0
 70
    16
 71
     2
 72
     9
  0
VERTEX
  8
I-FLU
  5
BED
 10
77.020522
 20
1557.114513
 30
41.46784
 70
    64
  0
VERTEX
  8
I-FLU
  5
BEE
 10
82.172764
 20
1557.114513
 30
45.696176
 70
    64
  0
VERTEX
  8
I-FLU
  5
BEF
 10
88.050916
 20
1557.114513
 30
48.838113
 70
    64
  0
VERTEX
  8
I-FLU
  5
BF0
 10
94.429081
 20
1557.114513
 30
50.772909
 70
    64
  0
VERTEX
  8
I-FLU
  5
BF1
 10
101.062152
 20
1557.114513
 30
51.426209
 70
    64
  0
VERTEX
  8
I-FLU
  5
BF2
 10
107.695223
 20
1557.114513
 30
50.772909
 70
    64
  0
VERTEX
  8
I-FLU
  5
BF3
 10
114.073389
 20
1557.114513
 30
48.838113
 70
    64
  0
VERTEX
  8
I-FLU
  5
BF4
 10
119.95154
 20
1557.114513
 30
45.696176
 70
    64
  0
VERTEX
  8
I-FLU
  5
BF5
 10
125.103783
 20
1557.114513
 30
41.46784
 70
    64
  0
VERTEX
  8
I-FLU
  5
BF6
 10
78.434735
 20
1557.114513
 30
40.053626
 70
    64
  0
VERTEX
  8
I-FLU
  5
BF7
 10
83.283905
 20
1557.114513
 30
44.033237
 70
    64
  0
VERTEX
  8
I-FLU
  5
BF8
 10
88.816283
 20
1557.114513
 30
46.990354
 70
    64
  0
VERTEX
  8
I-FLU
  5
BF9
 10
94.819262
 20
1557.114513
 30
48.811338
 70
    64
  0
VERTEX
  8
I-FLU
  5
BFA
 10
101.062152
 20
1557.114513
 30
49.426209
 70
    64
  0
VERTEX
  8
I-FLU
  5
BFB
 10
107.305043
 20
1557.114513
 30
48.811338
 70
    64
  0
VERTEX
  8
I-FLU
  5
BFC
 10
113.308022
 20
1557.114513
 30
46.990354
 70
    64
  0
VERTEX
  8
I-FLU
  5
BFD
 10
118.8404
 20
1557.114513
 30
44.033237
 70
    64
  0
VERTEX
  8
I-FLU
  5
BFE
 10
123.689569
 20
1557.114513
 30
40.053626
 70
    64
  0
SEQEND
  8
I-FLU
  5
BFF
  0
POLYLINE
  8
I-FLU
  5
C00
 66
     1
 10
0.0
 20
0.0
 30
0.0
 70
    16
 71
     2
 72
     9
  0
VERTEX
  8
I-FLU
  5
C01
 10
77.020522
 20
1557.114513
 30
-6.615422
 70
    64
  0
VERTEX
  8
I-FLU
  5
C02
 10
82.172764
 20
1557.114513
 30
-10.843758
 70
    64
  0
VERTEX
  8
I-FLU
  5
C03
 10
88.050916
 20
1557.114513
 30
-13.985695
 70
    64
  0
VERTEX
  8
I-FLU
  5
C04
 10
94.429081
 20
1557.114513
 30
-15.92049
 70
    64
  0
VERTEX
  8
I-FLU
  5
C05
 10
101.062152
 20
1557.114513
 30
-16.573791
 70
    64
  0
VERTEX
  8
I-FLU
  5
C06
 10
107.695223
 20
1557.114513
 30
-15.92049
 70
    64
  0
VERTEX
  8
I-FLU
  5
C07
 10
114.073389
 20
1557.114513
 30
-13.985695
 70
    64
  0
VERTEX
  8
I-FLU
  5
C08
 10
119.95154
 20
1557.114513
 30
-10.843758
 70
    64
  0
VERTEX
  8
I-FLU
  5
C09
 10
125.103783
 20
1557.114513
 30
-6.615422
 70
    64
  0
VERTEX
  8
I-FLU
  5
C0A
 10
78.434735
 20
1557.114513
 30
-5.201208
 70
    64
  0
VERTEX
  8
I-FLU
  5
C0B
 10
83.283905
 20
1557.114513
 30
-9.180819
 70
    64
  0
VERTEX
  8
I-FLU
  5
C0C
 10
88.816283
 20
1557.114513
 30
-12.137936
 70
    64
  0
VERTEX
  8
I-FLU
  5
C0D
 10
94.819262
 20
1557.114513
 30
-13.95892
 70
    64
  0
VERTEX
  8
I-FLU
  5
C0E
 10
101.062152
 20
1557.114513
 30
-14.573791
 70
    64
  0
VERTEX
  8
I-FLU
  5
C0F
 10
107.305043
 20
1557.114513
 30
-13.95892
 70
    64
  0
VERTEX
  8
I-FLU
  5
C10
 10
113.308022
 20
1557.114513
 30
-12.137936
 70
    64
  0
VERTEX
  8
I-FLU
  5
C11
 10
118.8404
 20
1557.114513
 30
-9.180819
 70
    64
  0
VERTEX
  8
I-FLU
  5
C12
 10
123.689569
 20
1557.114513
 30
-5.201208
 70
    64
  0
SEQEND
  8
I-FLU
  5
C13
  0
ARC
  8
I-FLU
  5
C14
 10
-101.062152
 20
17.426209
 30
1557.114513
 40
32.0
 50
225.0
 51
315.0
210
0.0
220
1.0
230
0.0
  0
ARC
  8
I-FLU
  5
C15
 10
-101.062152
 20
17.426209
 30
1557.114513
 40
32.0
 50
45.0
 51
135.0
210
0.0
220
1.0
230
0.0
  0
ARC
  8
I-FLU
  5
C16
 10
-101.062152
 20
17.426209
 30
1557.114513
 40
34.0
 50
45.0
 51
135.0
210
0.0
220
1.0
230
0.0
  0
ARC
  8
I-FLU
  5
C17
 10
-101.062152
 20
17.426209
 30
1557.114513
 40
34.0
 50
225.0
 51
315.0
210
0.0
220
1.0
230
0.0
  0
POLYLINE
  8
I-FLU
  5
C18
 66
     1
 10
0.0
 20
0.0
 30
0.0
 70
    16
 71
     2
 72
     5
  0
VERTEX
  8
I-FLU
  5
C19
 10
67.062152
 20
1557.114513
 30
17.426209
 70
    64
  0
VERTEX
  8
I-FLU
  5
C1A
 10
67.621465
 20
1557.114513
 30
23.567904
 70
    64
  0
VERTEX
  8
I-FLU
  5
C1B
 10
69.281
 20
1557.114513
 30
29.507532
 70
    64
  0
VERTEX
  8
I-FLU
  5
C1C
 10
71.986159
 20
1557.114513
 30
35.049676
 70
    64
  0
VERTEX
  8
I-FLU
  5
C1D
 10
75.647939
 20
1557.114513
 30
40.011995
 70
    64
  0
VERTEX
  8
I-FLU
  5
C1E
 10
69.062152
 20
1557.114513
 30
17.426209
 70
    64
  0
VERTEX
  8
I-FLU
  5
C1F
 10
69.583255
 20
1557.114513
 30
23.177644
 70
    64
  0
VERTEX
  8
I-FLU
  5
C20
 10
71.12959
 20
1557.114513
 30
28.741761
 70
    64
  0
VERTEX
  8
I-FLU
  5
C21
 10
73.650796
 20
1557.114513
 30
33.937343
 70
    64
  0
VERTEX
  8
I-FLU
  5
C22
 10
77.064759
 20
1557.114513
 30
38.595175
 70
    64
  0
SEQEND
  8
I-FLU
  5
C23
  0
POLYLINE
  8
I-FLU
  5
C24
 66
     1
 10
0.0
 20
0.0
 30
0.0
 70
    16
 71
     2
 72
     5
  0
VERTEX
  8
I-FLU
  5
C25
 10
67.062152
 20
1557.114513
 30
17.426209
 70
    64
  0
VERTEX
  8
I-FLU
  5
C26
 10
67.621465
 20
1557.114513
 30
11.284514
 70
    64
  0
VERTEX
  8
I-FLU
  5
C27
 10
69.281
 20
1557.114513
 30
5.344886
 70
    64
  0
VERTEX
  8
I-FLU
  5
C28
 10
71.986159
 20
1557.114513
 30
-0.197258
 70
    64
  0
VERTEX
  8
I-FLU
  5
C29
 10
75.647939
 20
1557.114513
 30
-5.159577
 70
    64
  0
VERTEX
  8
I-FLU
  5
C2A
 10
69.062152
 20
1557.114513
 30
17.426209
 70
    64
  0
VERTEX
  8
I-FLU
  5
C2B
 10
69.583255
 20
1557.114513
 30
11.674774
 70
    64
  0
VERTEX
  8
I-FLU
  5
C2C
 10
71.12959
 20
1557.114513
 30
6.110657
 70
    64
  0
VERTEX
  8
I-FLU
  5
C2D
 10
73.650796
 20
1557.114513
 30
0.915075
 70
    64
  0
VERTEX
  8
I-FLU
  5
C2E
 10
77.064759
 20
1557.114513
 30
-3.742757
 70
    64
  0
SEQEND
  8
I-FLU
  5
C2F
  0
ARC
  8
I-FLU
  5
C30
 10
-101.062152
 20
17.426209
 30
1557.114513
 40
32.0
 50
0.0
 51
41.416678
210
0.0
220
1.0
230
0.0
  0
ARC
  8
I-FLU
  5
C31
 10
-101.062152
 20
17.426209
 30
1557.114513
 40
32.0
 50
318.583322
 51
0.0
210
0.0
220
1.0
230
0.0
  0
ARC
  8
I-FLU
  5
C32
 10
-101.062152
 20
17.426209
 30
1557.114513
 40
34.0
 50
318.372287
 51
0.0
210
0.0
220
1.0
230
0.0
  0
ARC
  8
I-FLU
  5
C33
 10
-101.062152
 20
17.426209
 30
1557.114513
 40
34.0
 50
0.0
 51
41.627713
210
0.0
220
1.0
230
0.0
  0
POINT
  8
I-FLU
  5
C34
 10
67.062152
 20
1557.114513
 30
17.426209
210
0.0
220
1.0
230
0.0
  0
LINE
  8
I-FLU
  5
C35
 10
75.647939
 20
1557.114513
 30
-5.159577
 11
77.064759
 21
1557.114513
 31
-3.742757
210
0.0
220
1.0
230
0.0
  0
POINT
  8
I-FLU
  5
C36
 10
77.020522
 20
1557.114513
 30
-6.615422
210
0.0
220
1.0
230
0.0
  0
LINE
  8
I-FLU
  5
C37
 10
77.064759
 20
1557.114513
 30
-3.742757
 11
78.434735
 21
1557.114513
 31
-5.201208
210
0.0
220
1.0
230
0.0
  0
LINE
  8
I-FLU
  5
C38
 10
77.020522
 20
1557.114513
 30
-6.615422
 11
78.434735
 21
1557.114513
 31
-5.201208
210
0.0
220
1.0
230
0.0
  0
LINE
  8
I-FLU
  5
C39
 10
75.647939
 20
1557.114513
 30
40.011995
 11
77.064759
 21
1557.114513
 31
38.595175
210
0.0
220
1.0
230
0.0
  0
POINT
  8
I-FLU
  5
C3A
 10
77.020522
 20
1557.114513
 30
41.46784
210
0.0
220
1.0
230
0.0
  0
LINE
  8
I-FLU
  5
C3B
 10
77.064759
 20
1557.114513
 30
38.595175
 11
78.434735
 21
1557.114513
 31
40.053626
210
0.0
220
1.0
230
0.0
  0
LINE
  8
I-FLU
  5
C3C
 10
77.020522
 20
1557.114513
 30
41.46784
 11
78.434735
 21
1557.114513
 31
40.053626
210
0.0
220
1.0
230
0.0
  0
LINE
  8
I-CAP
  5
C3D
 10
131.362152
 20
1562.164513
 30
17.426209
 11
129.342152
 21
1562.164513
 31
17.426209
  0
POLYLINE
  8
I-FLU
  5
C3E
 66
     1
 10
0.0
 20
0.0
 30
0.0
 70
    16
 71
     2
 72
     5
  0
VERTEX
  8
I-FLU
  5
C3F
 10
135.062152
 20
1557.114513
 30
17.426209
 70
    64
  0
VERTEX
  8
I-FLU
  5
C40
 10
134.50284
 20
1557.114513
 30
23.567904
 70
    64
  0
VERTEX
  8
I-FLU
  5
C41
 10
132.843305
 20
1557.114513
 30
29.507532
 70
    64
  0
VERTEX
  8
I-FLU
  5
C42
 10
130.138146
 20
1557.114513
 30
35.049676
 70
    64
  0
VERTEX
  8
I-FLU
  5
C43
 10
126.476366
 20
1557.114513
 30
40.011995
 70
    64
  0
VERTEX
  8
I-FLU
  5
C44
 10
133.062152
 20
1557.114513
 30
17.426209
 70
    64
  0
VERTEX
  8
I-FLU
  5
C45
 10
132.54105
 20
1557.114513
 30
23.177644
 70
    64
  0
VERTEX
  8
I-FLU
  5
C46
 10
130.994715
 20
1557.114513
 30
28.741761
 70
    64
  0
VERTEX
  8
I-FLU
  5
C47
 10
128.473509
 20
1557.114513
 30
33.937343
 70
    64
  0
VERTEX
  8
I-FLU
  5
C48
 10
125.059546
 20
1557.114513
 30
38.595175
 70
    64
  0
SEQEND
  8
I-FLU
  5
C49
  0
POLYLINE
  8
I-FLU
  5
C4A
 66
     1
 10
0.0
 20
0.0
 30
0.0
 70
    16
 71
     2
 72
     5
  0
VERTEX
  8
I-FLU
  5
C4B
 10
135.062152
 20
1557.114513
 30
17.426209
 70
    64
  0
VERTEX
  8
I-FLU
  5
C4C
 10
134.50284
 20
1557.114513
 30
11.284514
 70
    64
  0
VERTEX
  8
I-FLU
  5
C4D
 10
132.843305
 20
1557.114513
 30
5.344886
 70
    64
  0
VERTEX
  8
I-FLU
  5
C4E
 10
130.138146
 20
1557.114513
 30
-0.197258
 70
    64
  0
VERTEX
  8
I-FLU
  5
C4F
 10
126.476366
 20
1557.114513
 30
-5.159577
 70
    64
  0
VERTEX
  8
I-FLU
  5
C50
 10
133.062152
 20
1557.114513
 30
17.426209
 70
    64
  0
VERTEX
  8
I-FLU
  5
C51
 10
132.54105
 20
1557.114513
 30
11.674774
 70
    64
  0
VERTEX
  8
I-FLU
  5
C52
 10
130.994715
 20
1557.114513
 30
6.110657
 70
    64
  0
VERTEX
  8
I-FLU
  5
C53
 10
128.473509
 20
1557.114513
 30
0.915075
 70
    64
  0
VERTEX
  8
I-FLU
  5
C54
 10
125.059546
 20
1557.114513
 30
-3.742757
 70
    64
  0
SEQEND
  8
I-FLU
  5
C55
  0
ARC
  8
I-FLU
  5
C56
 10
-101.062152
 20
17.426209
 30
1557.114513
 40
32.0
 50
138.583322
 51
180.0
210
0.0
220
1.0
230
0.0
  0
ARC
  8
I-FLU
  5
C57
 10
-101.062152
 20
17.426209
 30
1557.114513
 40
32.0
 50
180.0
 51
221.416678
210
0.0
220
1.0
230
0.0
  0
ARC
  8
I-FLU
  5
C58
 10
-101.062152
 20
17.426209
 30
1557.114513
 40
34.0
 50
180.0
 51
221.627713
210
0.0
220
1.0
230
0.0
  0
ARC
  8
I-FLU
  5
C59
 10
-101.062152
 20
17.426209
 30
1557.114513
 40
34.0
 50
138.372287
 51
180.0
210
0.0
220
1.0
230
0.0
  0
POINT
  8
I-FLU
  5
C5A
 10
101.062152
 20
1557.114513
 30
-16.573791
210
0.0
220
1.0
230
0.0
  0
LINE
  8
I-FLU
  5
C5B
 10
125.059546
 20
1557.114513
 30
-3.742757
 11
126.476366
 21
1557.114513
 31
-5.159577
210
0.0
220
1.0
230
0.0
  0
POINT
  8
I-FLU
  5
C5C
 10
125.103783
 20
1557.114513
 30
-6.615422
210
0.0
220
1.0
230
0.0
  0
LINE
  8
I-FLU
  5
C5D
 10
125.059546
 20
1557.114513
 30
-3.742757
 11
123.689569
 21
1557.114513
 31
-5.201208
210
0.0
220
1.0
230
0.0
  0
LINE
  8
I-FLU
  5
C5E
 10
123.689569
 20
1557.114513
 30
-5.201208
 11
125.103783
 21
1557.114513
 31
-6.615422
210
0.0
220
1.0
230
0.0
  0
LINE
  8
I-CAP
  5
C5F
 10
127.322152
 20
1557.114513
 30
17.426209
 11
101.062152
 21
1557.114513
 31
17.426209
  0
LINE
  8
I-CAP
  5
C60
 10
101.062152
 20
1557.114513
 30
17.426209
 11
101.062152
 21
1577.314513
 31
17.426209
  0
POINT
  8
I-FLU
  5
C61
 10
101.062152
 20
1557.114513
 30
51.426209
210
0.0
220
1.0
230
0.0
  0
LINE
  8
I-CAP
  5
C62
 10
129.342152
 20
1563.174513
 30
17.426209
 11
127.322152
 21
1563.174513
 31
17.426209
  0
LINE
  8
I-CAP
  5
C63
 10
127.322152
 20
1563.174513
 30
17.426209
 11
127.322152
 21
1557.114513
 31
17.426209
  0
LINE
  8
I-FLU
  5
C64
 10
125.059546
 20
1557.114513
 30
38.595175
 11
126.476366
 21
1557.114513
 31
40.011995
210
0.0
220
1.0
230
0.0
  0
POINT
  8
I-FLU
  5
C65
 10
125.103783
 20
1557.114513
 30
41.46784
210
0.0
220
1.0
230
0.0
  0
LINE
  8
I-FLU
  5
C66
 10
123.689569
 20
1557.114513
 30
40.053626
 11
125.059546
 21
1557.114513
 31
38.595175
210
0.0
220
1.0
230
0.0
  0
LINE
  8
I-FLU
  5
C67
 10
123.689569
 20
1557.114513
 30
40.053626
 11
125.103783
 21
1557.114513
 31
41.46784
210
0.0
220
1.0
230
0.0
  0
LINE
  8
I-CAP
  5
C68
 10
129.342152
 20
1562.164513
 30
17.426209
 11
129.342152
 21
1563.174513
 31
17.426209
  0
POINT
  8
I-FLU
  5
C69
 10
135.062152
 20
1557.114513
 30
17.426209
210
0.0
220
1.0
230
0.0
  0
LINE
  8
I-CAP
  5
C6A
 10
131.362152
 20
1562.164513
 30
17.426209
 11
133.382152
 21
1557.114513
 31
17.426209
  0
POLYLINE
  8
I-FLU
  5
C7B
 66
     1
 10
0.0
 20
0.0
 30
0.0
 70
    16
 71
     2
 72
     3
  0
VERTEX
  8
I-FLU
  5
C7C
 10
77.064759
 20
-42.885487
 30
-3.742757
 70
    64
  0
VERTEX
  8
I-FLU
  5
C7D
 10
77.749747
 20
-42.885487
 30
-4.471982
 70
    64
  0
VERTEX
  8
I-FLU
  5
C7E
 10
78.434735
 20
-42.885487
 30
-5.201208
 70
    64
  0
VERTEX
  8
I-FLU
  5
C7F
 10
77.064759
 20
1557.114513
 30
-3.742757
 70
    64
  0
VERTEX
  8
I-FLU
  5
C80
 10
77.749747
 20
1557.114513
 30
-4.471982
 70
    64
  0
VERTEX
  8
I-FLU
  5
C81
 10
78.434735
 20
1557.114513
 30
-5.201208
 70
    64
  0
SEQEND
  8
I-FLU
  5
C82
  0
POLYLINE
  8
I-FLU
  5
C83
 66
     1
 10
0.0
 20
0.0
 30
0.0
 70
    16
 71
     2
 72
     3
  0
VERTEX
  8
I-FLU
  5
C84
 10
77.064759
 20
-42.885487
 30
-3.742757
 70
    64
  0
VERTEX
  8
I-FLU
  5
C85
 10
76.356349
 20
-42.885487
 30
-4.451167
 70
    64
  0
VERTEX
  8
I-FLU
  5
C86
 10
75.647939
 20
-42.885487
 30
-5.159577
 70
    64
  0
VERTEX
  8
I-FLU
  5
C87
 10
77.064759
 20
1557.114513
 30
-3.742757
 70
    64
  0
VERTEX
  8
I-FLU
  5
C88
 10
76.356349
 20
1557.114513
 30
-4.451167
 70
    64
  0
VERTEX
  8
I-FLU
  5
C89
 10
75.647939
 20
1557.114513
 30
-5.159577
 70
    64
  0
SEQEND
  8
I-FLU
  5
C8A
  0
POLYLINE
  8
I-FLU
  5
C8B
 66
     1
 10
0.0
 20
0.0
 30
0.0
 70
    16
 71
     2
 72
     3
  0
VERTEX
  8
I-FLU
  5
C8C
 10
78.434735
 20
-42.885487
 30
-5.201208
 70
    64
  0
VERTEX
  8
I-FLU
  5
C8D
 10
77.727629
 20
-42.885487
 30
-5.908315
 70
    64
  0
VERTEX
  8
I-FLU
  5
C8E
 10
77.020522
 20
-42.885487
 30
-6.615422
 70
    64
  0
VERTEX
  8
I-FLU
  5
C8F
 10
78.434735
 20
1557.114513
 30
-5.201208
 70
    64
  0
VERTEX
  8
I-FLU
  5
C90
 10
77.727629
 20
1557.114513
 30
-5.908315
 70
    64
  0
VERTEX
  8
I-FLU
  5
C91
 10
77.020522
 20
1557.114513
 30
-6.615422
 70
    64
  0
SEQEND
  8
I-FLU
  5
C92
  0
POLYLINE
  8
I-FLU
  5
C93
 66
     1
 10
0.0
 20
0.0
 30
0.0
 70
    16
 71
     2
 72
     3
  0
VERTEX
  8
I-FLU
  5
C94
 10
77.020522
 20
-42.885487
 30
41.46784
 70
    64
  0
VERTEX
  8
I-FLU
  5
C95
 10
77.727629
 20
-42.885487
 30
40.760733
 70
    64
  0
VERTEX
  8
I-FLU
  5
C96
 10
78.434735
 20
-42.885487
 30
40.053626
 70
    64
  0
VERTEX
  8
I-FLU
  5
C97
 10
77.020522
 20
1557.114513
 30
41.46784
 70
    64
  0
VERTEX
  8
I-FLU
  5
C98
 10
77.727629
 20
1557.114513
 30
40.760733
 70
    64
  0
VERTEX
  8
I-FLU
  5
C99
 10
78.434735
 20
1557.114513
 30
40.053626
 70
    64
  0
SEQEND
  8
I-FLU
  5
C9A
  0
POLYLINE
  8
I-FLU
  5
C9B
 66
     1
 10
0.0
 20
0.0
 30
0.0
 70
    16
 71
     2
 72
     3
  0
VERTEX
  8
I-FLU
  5
C9C
 10
77.064759
 20
-42.885487
 30
38.595175
 70
    64
  0
VERTEX
  8
I-FLU
  5
C9D
 10
76.356349
 20
-42.885487
 30
39.303585
 70
    64
  0
VERTEX
  8
I-FLU
  5
C9E
 10
75.647939
 20
-42.885487
 30
40.011995
 70
    64
  0
VERTEX
  8
I-FLU
  5
C9F
 10
77.064759
 20
1557.114513
 30
38.595175
 70
    64
  0
VERTEX
  8
I-FLU
  5
CA0
 10
76.356349
 20
1557.114513
 30
39.303585
 70
    64
  0
VERTEX
  8
I-FLU
  5
CA1
 10
75.647939
 20
1557.114513
 30
40.011995
 70
    64
  0
SEQEND
  8
I-FLU
  5
CA2
  0
POLYLINE
  8
I-FLU
  5
CA3
 66
     1
 10
0.0
 20
0.0
 30
0.0
 70
    16
 71
     2
 72
     3
  0
VERTEX
  8
I-FLU
  5
CA4
 10
77.064759
 20
-42.885487
 30
38.595175
 70
    64
  0
VERTEX
  8
I-FLU
  5
CA5
 10
77.749747
 20
-42.885487
 30
39.324401
 70
    64
  0
VERTEX
  8
I-FLU
  5
CA6
 10
78.434735
 20
-42.885487
 30
40.053626
 70
    64
  0
VERTEX
  8
I-FLU
  5
CA7
 10
77.064759
 20
1557.114513
 30
38.595175
 70
    64
  0
VERTEX
  8
I-FLU
  5
CA8
 10
77.749747
 20
1557.114513
 30
39.324401
 70
    64
  0
VERTEX
  8
I-FLU
  5
CA9
 10
78.434735
 20
1557.114513
 30
40.053626
 70
    64
  0
SEQEND
  8
I-FLU
  5
CAA
  0
POLYLINE
  8
I-FLU
  5
CAB
 66
     1
 10
0.0
 20
0.0
 30
0.0
 70
    16
 71
     2
 72
     3
  0
VERTEX
  8
I-FLU
  5
CAC
 10
125.059546
 20
-42.885487
 30
38.595175
 70
    64
  0
VERTEX
  8
I-FLU
  5
CAD
 10
124.374557
 20
-42.885487
 30
39.324401
 70
    64
  0
VERTEX
  8
I-FLU
  5
CAE
 10
123.689569
 20
-42.885487
 30
40.053626
 70
    64
  0
VERTEX
  8
I-FLU
  5
CAF
 10
125.059546
 20
1557.114513
 30
38.595175
 70
    64
  0
VERTEX
  8
I-FLU
  5
CB0
 10
124.374557
 20
1557.114513
 30
39.324401
 70
    64
  0
VERTEX
  8
I-FLU
  5
CB1
 10
123.689569
 20
1557.114513
 30
40.053626
 70
    64
  0
SEQEND
  8
I-FLU
  5
CB2
  0
POLYLINE
  8
I-FLU
  5
CB3
 66
     1
 10
0.0
 20
0.0
 30
0.0
 70
    16
 71
     2
 72
     3
  0
VERTEX
  8
I-FLU
  5
CB4
 10
125.103783
 20
-42.885487
 30
41.46784
 70
    64
  0
VERTEX
  8
I-FLU
  5
CB5
 10
124.396676
 20
-42.885487
 30
40.760733
 70
    64
  0
VERTEX
  8
I-FLU
  5
CB6
 10
123.689569
 20
-42.885487
 30
40.053626
 70
    64
  0
VERTEX
  8
I-FLU
  5
CB7
 10
125.103783
 20
1557.114513
 30
41.46784
 70
    64
  0
VERTEX
  8
I-FLU
  5
CB8
 10
124.396676
 20
1557.114513
 30
40.760733
 70
    64
  0
VERTEX
  8
I-FLU
  5
CB9
 10
123.689569
 20
1557.114513
 30
40.053626
 70
    64
  0
SEQEND
  8
I-FLU
  5
CBA
  0
POLYLINE
  8
I-FLU
  5
CBB
 66
     1
 10
0.0
 20
0.0
 30
0.0
 70
    16
 71
     2
 72
     3
  0
VERTEX
  8
I-FLU
  5
CBC
 10
126.476366
 20
-42.885487
 30
40.011995
 70
    64
  0
VERTEX
  8
I-FLU
  5
CBD
 10
125.767956
 20
-42.885487
 30
39.303585
 70
    64
  0
VERTEX
  8
I-FLU
  5
CBE
 10
125.059546
 20
-42.885487
 30
38.595175
 70
    64
  0
VERTEX
  8
I-FLU
  5
CBF
 10
126.476366
 20
1557.114513
 30
40.011995
 70
    64
  0
VERTEX
  8
I-FLU
  5
CC0
 10
125.767956
 20
1557.114513
 30
39.303585
 70
    64
  0
VERTEX
  8
I-FLU
  5
CC1
 10
125.059546
 20
1557.114513
 30
38.595175
 70
    64
  0
SEQEND
  8
I-FLU
  5
CC2
  0
POLYLINE
  8
I-FLU
  5
CC3
 66
     1
 10
0.0
 20
0.0
 30
0.0
 70
    16
 71
     2
 72
     3
  0
VERTEX
  8
I-FLU
  5
CC4
 10
123.689569
 20
-42.885487
 30
-5.201208
 70
    64
  0
VERTEX
  8
I-FLU
  5
CC5
 10
124.374557
 20
-42.885487
 30
-4.471982
 70
    64
  0
VERTEX
  8
I-FLU
  5
CC6
 10
125.059546
 20
-42.885487
 30
-3.742757
 70
    64
  0
VERTEX
  8
I-FLU
  5
CC7
 10
123.689569
 20
1557.114513
 30
-5.201208
 70
    64
  0
VERTEX
  8
I-FLU
  5
CC8
 10
124.374557
 20
1557.114513
 30
-4.471982
 70
    64
  0
VERTEX
  8
I-FLU
  5
CC9
 10
125.059546
 20
1557.114513
 30
-3.742757
 70
    64
  0
SEQEND
  8
I-FLU
  5
CCA
  0
POLYLINE
  8
I-FLU
  5
CCB
 66
     1
 10
0.0
 20
0.0
 30
0.0
 70
    16
 71
     2
 72
     3
  0
VERTEX
  8
I-FLU
  5
CCC
 10
125.059546
 20
-42.885487
 30
-3.742757
 70
    64
  0
VERTEX
  8
I-FLU
  5
CCD
 10
125.767956
 20
-42.885487
 30
-4.451167
 70
    64
  0
VERTEX
  8
I-FLU
  5
CCE
 10
126.476366
 20
-42.885487
 30
-5.159577
 70
    64
  0
VERTEX
  8
I-FLU
  5
CCF
 10
125.059546
 20
1557.114513
 30
-3.742757
 70
    64
  0
VERTEX
  8
I-FLU
  5
CD0
 10
125.767956
 20
1557.114513
 30
-4.451167
 70
    64
  0
VERTEX
  8
I-FLU
  5
CD1
 10
126.476366
 20
1557.114513
 30
-5.159577
 70
    64
  0
SEQEND
  8
I-FLU
  5
CD2
  0
POLYLINE
  8
I-FLU
  5
CD3
 66
     1
 10
0.0
 20
0.0
 30
0.0
 70
    16
 71
     2
 72
     3
  0
VERTEX
  8
I-FLU
  5
CD4
 10
123.689569
 20
-42.885487
 30
-5.201208
 70
    64
  0
VERTEX
  8
I-FLU
  5
CD5
 10
124.396676
 20
-42.885487
 30
-5.908315
 70
    64
  0
VERTEX
  8
I-FLU
  5
CD6
 10
125.103783
 20
-42.885487
 30
-6.615422
 70
    64
  0
VERTEX
  8
I-FLU
  5
CD7
 10
123.689569
 20
1557.114513
 30
-5.201208
 70
    64
  0
VERTEX
  8
I-FLU
  5
CD8
 10
124.396676
 20
1557.114513
 30
-5.908315
 70
    64
  0
VERTEX
  8
I-FLU
  5
CD9
 10
125.103783
 20
1557.114513
 30
-6.615422
 70
    64
  0
SEQEND
  8
I-FLU
  5
CDA
  0
POLYLINE
  8
I-FLU
  5
CE3
 66
     1
 10
0.0
 20
0.0
 30
0.0
 70
    16
 71
     2
 72
     5
  0
VERTEX
  8
I-FLU
  5
CE4
 10
67.062152
 20
-42.885487
 30
17.426209
 70
    64
  0
VERTEX
  8
I-FLU
  5
CE5
 10
67.621465
 20
-42.885487
 30
11.284514
 70
    64
  0
VERTEX
  8
I-FLU
  5
CE6
 10
69.281
 20
-42.885487
 30
5.344886
 70
    64
  0
VERTEX
  8
I-FLU
  5
CE7
 10
71.986159
 20
-42.885487
 30
-0.197258
 70
    64
  0
VERTEX
  8
I-FLU
  5
CE8
 10
75.647939
 20
-42.885487
 30
-5.159577
 70
    64
  0
VERTEX
  8
I-FLU
  5
CE9
 10
67.062152
 20
1557.114513
 30
17.426209
 70
    64
  0
VERTEX
  8
I-FLU
  5
CEA
 10
67.621465
 20
1557.114513
 30
11.284514
 70
    64
  0
VERTEX
  8
I-FLU
  5
CEB
 10
69.281
 20
1557.114513
 30
5.344886
 70
    64
  0
VERTEX
  8
I-FLU
  5
CEC
 10
71.986159
 20
1557.114513
 30
-0.197258
 70
    64
  0
VERTEX
  8
I-FLU
  5
CED
 10
75.647939
 20
1557.114513
 30
-5.159577
 70
    64
  0
SEQEND
  8
I-FLU
  5
CEE
  0
POLYLINE
  8
I-FLU
  5
CEF
 66
     1
 10
0.0
 20
0.0
 30
0.0
 70
    16
 71
     2
 72
     5
  0
VERTEX
  8
I-FLU
  5
CF0
 10
75.647939
 20
-42.885487
 30
40.011995
 70
    64
  0
VERTEX
  8
I-FLU
  5
CF1
 10
71.986159
 20
-42.885487
 30
35.049676
 70
    64
  0
VERTEX
  8
I-FLU
  5
CF2
 10
69.281
 20
-42.885487
 30
29.507532
 70
    64
  0
VERTEX
  8
I-FLU
  5
CF3
 10
67.621465
 20
-42.885487
 30
23.567904
 70
    64
  0
VERTEX
  8
I-FLU
  5
CF4
 10
67.062152
 20
-42.885487
 30
17.426209
 70
    64
  0
VERTEX
  8
I-FLU
  5
CF5
 10
75.647939
 20
1557.114513
 30
40.011995
 70
    64
  0
VERTEX
  8
I-FLU
  5
CF6
 10
71.986159
 20
1557.114513
 30
35.049676
 70
    64
  0
VERTEX
  8
I-FLU
  5
CF7
 10
69.281
 20
1557.114513
 30
29.507532
 70
    64
  0
VERTEX
  8
I-FLU
  5
CF8
 10
67.621465
 20
1557.114513
 30
23.567904
 70
    64
  0
VERTEX
  8
I-FLU
  5
CF9
 10
67.062152
 20
1557.114513
 30
17.426209
 70
    64
  0
SEQEND
  8
I-FLU
  5
CFA
  0
POLYLINE
  8
I-FLU
  5
CFB
 66
     1
 10
0.0
 20
0.0
 30
0.0
 70
    16
 71
     2
 72
     5
  0
VERTEX
  8
I-FLU
  5
CFC
 10
126.476366
 20
-42.885487
 30
40.011995
 70
    64
  0
VERTEX
  8
I-FLU
  5
CFD
 10
130.138146
 20
-42.885487
 30
35.049676
 70
    64
  0
VERTEX
  8
I-FLU
  5
CFE
 10
132.843305
 20
-42.885487
 30
29.507532
 70
    64
  0
VERTEX
  8
I-FLU
  5
CFF
 10
134.50284
 20
-42.885487
 30
23.567904
 70
    64
  0
VERTEX
  8
I-FLU
  5
D00
 10
135.062152
 20
-42.885487
 30
17.426209
 70
    64
  0
VERTEX
  8
I-FLU
  5
D01
 10
126.476366
 20
1557.114513
 30
40.011995
 70
    64
  0
VERTEX
  8
I-FLU
  5
D02
 10
130.138146
 20
1557.114513
 30
35.049676
 70
    64
  0
VERTEX
  8
I-FLU
  5
D03
 10
132.843305
 20
1557.114513
 30
29.507532
 70
    64
  0
VERTEX
  8
I-FLU
  5
D04
 10
134.50284
 20
1557.114513
 30
23.567904
 70
    64
  0
VERTEX
  8
I-FLU
  5
D05
 10
135.062152
 20
1557.114513
 30
17.426209
 70
    64
  0
SEQEND
  8
I-FLU
  5
D06
  0
POLYLINE
  8
I-FLU
  5
D07
 66
     1
 10
0.0
 20
0.0
 30
0.0
 70
    16
 71
     2
 72
     5
  0
VERTEX
  8
I-FLU
  5
D08
 10
135.062152
 20
-42.885487
 30
17.426209
 70
    64
  0
VERTEX
  8
I-FLU
  5
D09
 10
134.50284
 20
-42.885487
 30
11.284514
 70
    64
  0
VERTEX
  8
I-FLU
  5
D0A
 10
132.843305
 20
-42.885487
 30
5.344886
 70
    64
  0
VERTEX
  8
I-FLU
  5
D0B
 10
130.138146
 20
-42.885487
 30
-0.197258
 70
    64
  0
VERTEX
  8
I-FLU
  5
D0C
 10
126.476366
 20
-42.885487
 30
-5.159577
 70
    64
  0
VERTEX
  8
I-FLU
  5
D0D
 10
135.062152
 20
1557.114513
 30
17.426209
 70
    64
  0
VERTEX
  8
I-FLU
  5
D0E
 10
134.50284
 20
1557.114513
 30
11.284514
 70
    64
  0
VERTEX
  8
I-FLU
  5
D0F
 10
132.843305
 20
1557.114513
 30
5.344886
 70
    64
  0
VERTEX
  8
I-FLU
  5
D10
 10
130.138146
 20
1557.114513
 30
-0.197258
 70
    64
  0
VERTEX
  8
I-FLU
  5
D11
 10
126.476366
 20
1557.114513
 30
-5.159577
 70
    64
  0
SEQEND
  8
I-FLU
  5
D12
  0
POLYLINE
  8
I-FLU
  5
D13
 66
     1
 10
0.0
 20
0.0
 30
0.0
 70
    16
 71
     2
 72
     9
  0
VERTEX
  8
I-FLU
  5
D14
 10
77.020522
 20
-42.885487
 30
41.46784
 70
    64
  0
VERTEX
  8
I-FLU
  5
D15
 10
82.172764
 20
-42.885487
 30
45.696176
 70
    64
  0
VERTEX
  8
I-FLU
  5
D16
 10
88.050916
 20
-42.885487
 30
48.838113
 70
    64
  0
VERTEX
  8
I-FLU
  5
D17
 10
94.429081
 20
-42.885487
 30
50.772909
 70
    64
  0
VERTEX
  8
I-FLU
  5
D18
 10
101.062152
 20
-42.885487
 30
51.426209
 70
    64
  0
VERTEX
  8
I-FLU
  5
D19
 10
107.695223
 20
-42.885487
 30
50.772909
 70
    64
  0
VERTEX
  8
I-FLU
  5
D1A
 10
114.073389
 20
-42.885487
 30
48.838113
 70
    64
  0
VERTEX
  8
I-FLU
  5
D1B
 10
119.95154
 20
-42.885487
 30
45.696176
 70
    64
  0
VERTEX
  8
I-FLU
  5
D1C
 10
125.103783
 20
-42.885487
 30
41.46784
 70
    64
  0
VERTEX
  8
I-FLU
  5
D1D
 10
77.020522
 20
1557.114513
 30
41.46784
 70
    64
  0
VERTEX
  8
I-FLU
  5
D1E
 10
82.172764
 20
1557.114513
 30
45.696176
 70
    64
  0
VERTEX
  8
I-FLU
  5
D1F
 10
88.050916
 20
1557.114513
 30
48.838113
 70
    64
  0
VERTEX
  8
I-FLU
  5
D20
 10
94.429081
 20
1557.114513
 30
50.772909
 70
    64
  0
VERTEX
  8
I-FLU
  5
D21
 10
101.062152
 20
1557.114513
 30
51.426209
 70
    64
  0
VERTEX
  8
I-FLU
  5
D22
 10
107.695223
 20
1557.114513
 30
50.772909
 70
    64
  0
VERTEX
  8
I-FLU
  5
D23
 10
114.073389
 20
1557.114513
 30
48.838113
 70
    64
  0
VERTEX
  8
I-FLU
  5
D24
 10
119.95154
 20
1557.114513
 30
45.696176
 70
    64
  0
VERTEX
  8
I-FLU
  5
D25
 10
125.103783
 20
1557.114513
 30
41.46784
 70
    64
  0
SEQEND
  8
I-FLU
  5
D26
  0
POLYLINE
  8
I-TUBE
  5
D27
 66
     1
 10
0.0
 20
0.0
 30
0.0
 70
    16
 71
     2
 72
     9
  0
VERTEX
  8
I-TUBE
  5
D28
 10
82.020522
 20
1477.114513
 30
-6.615422
 70
    64
  0
VERTEX
  8
I-TUBE
  5
D29
 10
86.294249
 20
1477.114513
 30
-9.453016
 70
    64
  0
VERTEX
  8
I-TUBE
  5
D2A
 10
90.981169
 20
1477.114513
 30
-11.538554
 70
    64
  0
VERTEX
  8
I-TUBE
  5
D2B
 10
95.950146
 20
1477.114513
 30
-12.813683
 70
    64
  0
VERTEX
  8
I-TUBE
  5
D2C
 10
101.062152
 20
1477.114513
 30
-13.242728
 70
    64
  0
VERTEX
  8
I-TUBE
  5
D2D
 10
106.174159
 20
1477.114513
 30
-12.813683
 70
    64
  0
VERTEX
  8
I-TUBE
  5
D2E
 10
111.143136
 20
1477.114513
 30
-11.538554
 70
    64
  0
VERTEX
  8
I-TUBE
  5
D2F
 10
115.830056
 20
1477.114513
 30
-9.453016
 70
    64
  0
VERTEX
  8
I-TUBE
  5
D30
 10
120.103783
 20
1477.114513
 30
-6.615422
 70
    64
  0
VERTEX
  8
I-TUBE
  5
D31
 10
82.020522
 20
37.114513
 30
-6.615422
 70
    64
  0
VERTEX
  8
I-TUBE
  5
D32
 10
86.294249
 20
37.114513
 30
-9.453016
 70
    64
  0
VERTEX
  8
I-TUBE
  5
D33
 10
90.981169
 20
37.114513
 30
-11.538554
 70
    64
  0
VERTEX
  8
I-TUBE
  5
D34
 10
95.950146
 20
37.114513
 30
-12.813683
 70
    64
  0
VERTEX
  8
I-TUBE
  5
D35
 10
101.062152
 20
37.114513
 30
-13.242728
 70
    64
  0
VERTEX
  8
I-TUBE
  5
D36
 10
106.174159
 20
37.114513
 30
-12.813683
 70
    64
  0
VERTEX
  8
I-TUBE
  5
D37
 10
111.143136
 20
37.114513
 30
-11.538554
 70
    64
  0
VERTEX
  8
I-TUBE
  5
D38
 10
115.830056
 20
37.114513
 30
-9.453016
 70
    64
  0
VERTEX
  8
I-TUBE
  5
D39
 10
120.103783
 20
37.114513
 30
-6.615422
 70
    64
  0
SEQEND
  8
I-TUBE
  5
D3A
  0
ENDSEC
  0
EOF
